Zombie highway

(/) Slide Up  (\) Slide Down  (h) Hammer On  (p) Pull Off  (b) Bend (r) Release (v) Vibrato

E|--------------------------------------------------------------
B|--------------------------------------------------------------
G|--------------------------------------------------------------
D|--------------------------------------------------------------
A|--------------------------------------------------------------
E|--0--0--0--0--1--1--1--2--2--2--0--0--0--0--1--1--1--2--2--2--



E|--------------------------------------------------------------------------------
B|--------------------------------------------------------------------------------
G|--------------------------------------------------------------------------------
D|-----9-----9-----9-----9-----9-----9-----9-----9-----9-----9-----9-----9-----9--
A|--7-----7-----7-----7-----7-----------------------------------------------------
E|--------------------------------7-----7-----7-----7-----8-----8-----8-----8-----



E|--------------------------------------------------------------------------------
B|--------------------------------------------------------------------------------
G|--------------------------------------------------------------------------------
D|-----9-----9-----9-----9-----9-----9-----9-----9-----9-----9-----9-----9-----9--
A|--7-----7-----7-----7-----7-----------------------------------------------------
E|--------------------------------7-----7-----7-----7-----8-----8-----8-----8-----



E|--------------------------------------------------------------------------------
B|--------------------------------------------------------------------------------
G|--------------------------------------------------------------------------------
D|-----9-----9-----9-----9-----9-----9-----9-----9-----9-----9-----9-----9-----9--
A|--7-----7-----7-----7-----7-----------------------------------------------------
E|--------------------------------7-----7-----7-----7-----8-----8-----8-----8-----



E|--------------------------------------------------------------------
B|--------------------------------------------------------------------
G|--------------------------------------------------------------------
D|--------------------------------------------------------------------
A|--------------------------------------------------------------------
E|--9--9--9--9--9--9--11--11--11--11--11--11--10--10--10--10--10--10--



E|--------------------------------------------------------------------------------
B|--------------------------------------------------------------------------------
G|--------------------------------------------------------------------------------
D|-----9-----9-----9-----9-----9-----9-----9-----9-----9-----9-----9-----9-----9--
A|--7-----7-----7-----7-----7-----------------------------------------------------
E|--------------------------------7-----7-----7-----7-----8-----8-----8-----8-----



E|--
B|--
G|--
D|--
A|--
E|--
http://www.guitartabcreator.com
Guitar Tab Creator is intended to store guitar tab created through the tool. It currently does not support in-line text editing. Any text you place in here will be lost. If you need to comment on your tab, please use the "Tab Notes" section located below.