Going to Pasalaqua

(/) Slide Up  (\) Slide Down  (h) Hammer On  (p) Pull Off  (b) Bend (r) Release (v) Vibrato


Intro
E|-------------------|
B|-2~~-h3p2h3p2~~-2#-|
G|-2~~------------2#-|
D|-2~~------------2#-|
A|-0~~------------0#-|
E|-------------------|

Verse
E|-----------------------------------------------|-----------------------------------|
B|-----------------------------------------------|-----------------------------------|
G|-------------7777777777------------------------|-------------7777777777------------|
D|-2222222222--7777777777-7777777777-x7777777777-|-2222222222--7777777777-7777777777-|
A|-2222222222--5555555555-7777777777-x7777777777-|-2222222222--5555555555-7777777777-|
E|-0000000000-------------5555555555--5555555555-|-0000000000-------------5555555555-|

Pre Chorus
E|-----------------------------------------|-----------------------------------------|
B|-----------------------------------------|-----------------------------------------|
G|7777-----------------777777777-----------|7777-----------------77777777777777777---|
D|7777-7777-2222222222-777777777-7777777777|7777-7777-2222222222-77777777777777777-7-|
A|5555-7777-2222222222-555555555-7777777777|5555-7777-2222222222-55555555555555555-7-|
E|-----5555-0000000000-----------5555555555|-----5555-0000000000-------------------5-|
PM *****************

Chorus
E|-----------------------------------------------|
B|-----------------------------------------------|
G|---------------------------------7777777777----|
D|-777777777-2222222222-4444444444-7777777777--7-| X2
A|-777777777-2222222222-4444444444-5555555555--7-|
E|-555555555-0000000000-2222222222-------------5-|

Pre Verse 2
E|--------------------------------------------|
B|--------------------------------------------|
G|--------------------------------------------|
D|-7777777777777777-7777777777777777-77777777-|
A|-7777777777777777-7777777777777777-77777777-|
E|-5555555555555555-5555555555555555-55555555-|
PM **************** ****************

Verse 2
E|--------------------------------|----------------------------------------------------| |
B|--------------------------------|----------------------------------------------------|.|
G|-----------7777777777-----------|----------------------------------------------------| |
D|-222222222-7777777777-777777777-|-7777777777777777-7777777777777777-7777777777777777-| |
A|-222222222-5555555555-777777777-|-7777777777777777-7777777777777777-7777777777777777-|.|
E|-000000000------------555555555-|-5555555555555555-5555555555555555-5555555555555555-| |
PM **************** **************** ****************

Bridge
E|-----------------------------------|----2~-----2~-----2~-----2~-----2~-----2~-| |
B|-----------------------------------|-2~-3~--2~-3~--2~-3~--2~-3~--2~-3~--2~-3~-|.|
G|-----------------------------------|-2~-2~--2~-2~--2~-2~--2~-2~--2~-2~--2~-2~-| |
D|-7777777777777777-7777777777777777-|-2~-0~--2~-0~--2~-0~--2~-0~--2~-0~--2~-0~-| |
A|-7777777777777777-7777777777777777-|-0~-----0~-----0~-----0~-----0~-----0~----|.|
E|-5555555555555555-5555555555555555-|------------------------------------------| |
PM **************** ****************

Outro
E|----------------------------------------------------|
B|----------------------------------------------------|
G|--------------------------------7777777777-6~~~~-6:-|
D|-77777777-2222222222-4444444444-7777777777-7~~~~-7:-|
A|-77777777-2222222222-4444444444-5555555555-7~~~~-7:-|
E|-55555555-0000000000-2222222222------------5~~~~-5:-|

Order

Intro
Verse
Pre Chorus
Chorus
Pre Verse 2
Verse 2
Pre Chorus
Chorus
Bridge
Pre Chorus
Chorus
Outro
Guitar Tab Creator is intended to store guitar tab created through the tool. It currently does not support in-line text editing. Any text you place in here will be lost. If you need to comment on your tab, please use the "Tab Notes" section located below.