Minuscule 484 Pt. 2

(/) Slide Up  (\) Slide Down  (h) Hammer On  (p) Pull Off  (b) Bend (r) Release (v) Vibrato


E|-------------------------------------------------------------------------
B|-------------------------------------------------------------------------
G|-11-11-11-11-11-11-11-11-11-11-11-12-11-11-11-11-11-11-11-11-11-11-12-11-
D|-9--9--9--9--9--9--9--9--9--9--9-----9--9--9--9--9--9--9--9--9--9-----9--
A|-7--7--7--7--7--7--7--7--7--7--7-----7--7--7--7--7--7--7--7--7--7-----7--
E|-------------------------------------------------------------------------



E|-------------------------------------------------
B|-------------------------------------------------
G|-9-9-9-9-9-9-9-9-9-9-10-9-9-9-9-9-9-9-9-9-9-10-9-
D|-7-7-7-7-7-7-7-7-7-7----7-7-7-7-7-7-7-7-7-7----7-
A|-5-5-5-5-5-5-5-5-5-5----5-5-5-5-5-5-5-5-5-5----5-
E|-------------------------------------------------



E|----------------------------------------------------------------------------------
B|----------------------------------------------------------------------------------
G|-11-11-11-11-11-11-11-11-11-11-12-11-11-11-11-13-13-13-13-13-13-13-13-13-13-13-13-
D|-9--9--9--9--9--9--9--9--9--9-----9--9--9--9--11-11-11-11-11-11-11-11-11-11-11-11-
A|-7--7--7--7--7--7--7--7--7--7-----7--7--7--7--9--9--9--9--9--9--9--9--9--9--9--9--
E|-------------------------------------------------9-----------------------------0--



E|-------------------------------------------------------------------------------------
B|-------------------------------------------------------------------------------------
G|-11-11-11-11-11-11-11-11-11-11-12-11-11-11-11-11-11-11-13-13-13-13-13-15-15-15-15-15-
D|-9--9--9--9--9--9--9--9--9--9-----9--9--9--9--9--9--9--11-11-11-11-11-13-13-13-13-13-
A|-7--7--7--7--7--7--7--7--7--7-----7--7--7--7--7--7--7--9--9--9--9--9--11-11-11-11-11-
E|-------------------------------------------------------------------------------------



E|-
B|-
G|-
D|-
A|-
E|-
http://www.guitartabcreator.com
Guitar Tab Creator is intended to store guitar tab created through the tool. It currently does not support in-line text editing. Any text you place in here will be lost. If you need to comment on your tab, please use the "Tab Notes" section located below.