Minuscule 484

(/) Slide Up  (\) Slide Down  (h) Hammer On  (p) Pull Off  (b) Bend (r) Release (v) Vibrato
E|---------------------------------------------------------------------------------
B|---------------------------------------------------------------------------------
G|---------------------------------------------------------------------------------
D|-------------12----------------------12------------------7---------------7-------
A|-------10-------10----10-------10-------10----10-----5-----5---5-----5-----5---5-
E|-10-10----10-------10----10-10----10-------10----5-5---5-----5---5-5---5-----5---



E|---------------------------------------------------------------------------------
B|---------------------------------------------------------------------------------
G|---------------------------------------------------------------------------------
D|-------------12----------------------12------------------7---------------7-------
A|-------10-------10----10-------10-------10----10-----5-----5---5-----5-----5---5-
E|-10-10----10-------10----10-10----10-------10----5-5---5-----5---5-5---5-----5---



E|---------------------------------------------------------------------------------
B|---------------------------------------------------------------------------------
G|---------------------------------------------------------------------------------
D|-------------12----------------------12------------------7---------------7-------
A|-------10-------10----10-------10-------10----10-----5-----5---5-----5-----5---5-
E|-10-10----10-------10----10-10----10-------10----5-5---5-----5---5-5---5-----5---



E|-----------------------------------------------------------------
B|-----------------------------------------------------------------
G|-----------------------------------------------------------------
D|-------------12----------------------12------------------7-----7-
A|-------10-------10----10-------10-------10----10-----5-----5---5-
E|-10-10----10-------10----10-10----10-------10----5-5---5-----5-5-



E|-------------------------------------------------------------------------------
B|-------------------------------------------------------------------------------
G|-----------------------------------------------------------------7-------------
D|-------------------------------------7-7-----------------------7-7-7-5-5-5-3-3-
A|-------5b6-------------------5b6-----5-5-------5b6-------------5-5-5-3-3-3-3-3-
E|-0-0-0-----0-0-1h3p1p0-0-0-0-----0-0-5-5-0-0-0-----0-0-1h3p1p0-5-5-5-3-3-3-3-3-



E|-------------------------------------------------------------------------------
B|-------------------------------------------------------------------------------
G|-------------------------------------------------------------------------------
D|-------------------------------------7-7-----------------------7-7-7-5-5-5-3-3-
A|-------5b6-------------------5b6-----5-5-------5b6-------------5-5-5-3-3-3-3-3-
E|-0-0-0-----0-0-1h3p1p0-0-0-0-----0-0-5-5-0-0-0-----0-0-1h3p1p0-5-5-5-3-3-3-3-3-



E|-------------------------------------------------------------------------------
B|-------------------------------------------------------------------------------
G|-------------------------------------------------------------------------------
D|-------------------------------------7-7-----------------------7-7-7-5-5-5-3-3-
A|-------5b6-------------------5b6-----5-5-------5b6-------------5-5-5-3-3-3-3-3-
E|-0-0-0-----0-0-1h3p1p0-0-0-0-----0-0-5-5-0-0-0-----0-0-1h3p1p0-5-5-5-3-3-3-3-3-



E|-------------------------------------------------------------------------------
B|-------------------------------------------------------------------------------
G|-------------------------------------------------------------------------------
D|-------------------------------------7-7-----------------------7-7-7-5-5-5-3-3-
A|-------5b6-------------------5b6-----5-5-------5b6-------------5-5-5-3-3-3-3-3-
E|-0-0-0-----0-0-1h3p1p0-0-0-0-----0-0-5-5-0-0-0-----0-0-1h3p1p0-5-5-5-3-3-3-3-3-
http://www.guitartabcreator.com
Guitar Tab Creator is intended to store guitar tab created through the tool. It currently does not support in-line text editing. Any text you place in here will be lost. If you need to comment on your tab, please use the "Tab Notes" section located below.