Rocksmith

(/) Slide Up  (\) Slide Down  (h) Hammer On  (p) Pull Off  (b) Bend (r) Release (v) Vibrato

E|--0--0--0--3p0--|--0-------0-------0-------3--0--------|-----
B|----------------|-----5h7-----5h7-----5h7--------5--7--|-----
G|----------------|--------------------------------------|-----
D|----------------|--------------------------------------|-----
A|----------------|--------------------------------------|-----
E|----------------|--------------------------------------|-----



E|--0------------0------------0------------0------------
B|-----5h7----------5h7----------5h7----------5h7-------
G|----------5b5----------5b5----------5b5----------5b5--
D|------------------------------------------------------
A|------------------------------------------------------
E|------------------------------------------------------



E|--0--------------
B|-----5h7--7------
G|-------------5h7r
D|-----------------
A|-----------------
E|-----------------



E|--0-----------------------0-----------------------0--------------------------0h3h5--
B|-----5h7--7--7--7------------5h7--7--7--7------------5h7----------------7p5---------
G|-------------------5h7r5-------------------5h7r5----------7b7r5--5h7r5--------------
D|------------------------------------------------------------------------------------
A|------------------------------------------------------------------------------------
E|------------------------------------------------------------------------------------



E|--5h7--------------------0--|----------------------------------------0--|--
B|-------5h7--7h10--10h12-----|--12h14--12--12--12--12--12--12--12h14-----|--
G|----------------------------|---------12--12--12--12--12--12------------|--
D|----------------------------|-------------------------------------------|--
A|----------------------------|-------------------------------------------|--
E|----------------------------|-------------------------------------------|--



E|-------------
B|-------------
G|-------------
D|--14b14------
A|---------15--
E|-------------
http://www.guitartabcreator.com
Guitar Tab Creator is intended to store guitar tab created through the tool. It currently does not support in-line text editing. Any text you place in here will be lost. If you need to comment on your tab, please use the "Tab Notes" section located below.