Never Going Back Again

(/) Slide Up  (\) Slide Down  (h) Hammer On  (p) Pull Off  (b) Bend (r) Release (v) Vibrato

Stave 1:

E|-----------------
B|-----1-----0--1--
G|-----------------
D|-----2-----0--2--
A|--------0--------
E|--0--------------

Stave 2:

E|-----3--------------------
B|--------------1-----------
G|-----0--------------0-----
D|-----------2-----------2--
A|--------0-----------0-----
E|--0--------------0--------

Stave 3:

E|--------------------
B|-----0--0-----3--1--
G|--------------------
D|-----1--0-----3--3--
A|-----------0--------
E|--0-----------------

Stave 4:

E|--0--------0--------0-----
B|-----1--------1--------1--
G|--------0--------0--------
D|--------3-----------------
A|--0-----------0-----0-----
E|--------------------------

Stave 5:

E|-----------------------
B|--1--------3--5--3--1--
G|-----0-----------------
D|--------2--3--5--3--2--
A|-----------------------
E|--0--------------------

http://www.guitartabcreator.com
Guitar Tab Creator is intended to store guitar tab created through the tool. It currently does not support in-line text editing. Any text you place in here will be lost. If you need to comment on your tab, please use the "Tab Notes" section located below.