Satellite - Bass Guitar

(/) Slide Up  (\) Slide Down  (h) Hammer On  (p) Pull Off  (b) Bend (r) Release (v) Vibrato

E|-----------------------------------------------------------
B|-----------------------------------------------------------
G|-----------------------------------------------------------
D|-----------------------------------------------------------
A|--------3-----------------------------3--------------------
E|--0--0-----0--0--0--3--3--3--3--0--0-----0--0--0--3--3--1--



E|--------------------------------------------------------------
B|--------------------------------------------------------------
G|--------------------------------------------------------------
D|--------------------------------------------------------------
A|--------3-----------------------------3-----------------------
E|--0--0-----0--0--0--3--3--3--3--0--0-----0--0--3--5--3--0--1--



E|--------------------------------------------------------------------------------------------------
B|--------------------------------------------------------------------------------------------------
G|--------------------------------------------------------------------------------------------------
D|--------------------------------------------------------------------------------------------------
A|--1--1--1--1--1--1--1--1--1--1--1--1--1--1--1--1--------------------------------------------------
E|--------------------------------------------------0--0--0--0--0--0--0--0--0--0--0--0--0--0--0--0--



E|--------------------------------------------------------------------------------------------------
B|--------------------------------------------------------------------------------------------------
G|--------------------------------------------------------------------------------------------------
D|--------------------------------------------------------------------------------------------------
A|--1--1--1--1--1--1--1--1--1--1--1--1--1--1--1--1--0--0--0--0--0--0--0--0--0--0--0--0--0--0--0--0--
E|--------------------------------------------------------------------------------------------------



E|--------------------------------------------------------------------------------------------------
B|--------------------------------------------------------------------------------------------------
G|--------------------------------------------------------------------------------------------------
D|--------------------------------------------------------------------------------------------------
A|--1--1--1--1--1--1--1--1--1--1--1--1--1--1--1--1--------------------------------------------------
E|--------------------------------------------------0--0--0--0--0--0--0--0--0--0--0--0--0--0--0--0--



E|-----------------------------------------------------------------------------------------------
B|-----------------------------------------------------------------------------------------------
G|-----------------------------------------------------------------------------------------------
D|-----------------------------------------------------------------------------------------------
A|--1--1--1--1--1--1--1--1--1--1--1--1--1--1--1--1--4--4--4--4--4--4--4--4--4--4--4--4--4--4--4--
E|-----------------------------------------------------------------------------------------------



E|--------------------------------------------------------------------------------------------------
B|--------------------------------------------------------------------------------------------------
G|--------------------------------------------------------------------------------------------------
D|--------------------------------------------------------------------------------------------------
A|--3--3--3--3--3--3--3--3--------------------------------------------------1--1--1--1--1--1--1--1--
E|--------------------------6--6--6--6--6--6--6--6--5--5--5--5--5--5--5--5--------------------------



E|--------------------------------------------------------------------------------------------------
B|--------------------------------------------------------------------------------------------------
G|--------------------------------------------------------------------------------------------------
D|--------------------------------------------------------------------------------------------------
A|--------------------------------------------------3--3--3--3--3--3--3--3--3--3--3--3--3--3--3--3--
E|--6--6--6--6--6--6--6--6--6--6--6--6--6--6--6--6--------------------------------------------------



E|--------------------------------------------------------------------------------------------------
B|--------------------------------------------------------------------------------------------------
G|--------------------------------------------------------------------------------------------------
D|--------------------------------------------------------------------------------------------------
A|--------------------------------------------------------------------------------------------------
E|--6--6--6--6--6--6--6--6--6--6--6--6--6--6--6--6--5--5--5--5--5--5--5--5--5--5--5--5--5--5--5--5--



E|--------------------------------------------------------------------------------------------------------
B|--------------------------------------------------------------------------------------------------------
G|--------------------------------------------------------------------------------------------------------
D|--------------------------------------------------------------------------------------------------------
A|--------------------------------------------------3--3--3--3--3--3--3--3--3--3--3--3--3--3--3--3--------
E|--6--6--6--6--6--6--6--6--6--6--6--6--6--6--6--6--------------------------------------------------6--6--



E|-----------------------------------------------------------------------------------------------
B|-----------------------------------------------------------------------------------------------
G|-----------------------------------------------------------------------------------------------
D|-----------------------------------------------------------------------------------------------
A|--------------------------------------------------3--3--3--3--3--3--3--3--3--3--3--3--3--3--4--
E|--6--6--6--6--6--6--6--6--6--6--6--6--6--6--6--6-----------------------------------------------



E|--------------------------------------------------
B|--------------------------------------------------
G|--------------------------------------------------
D|--------------------------------------------------
A|--------------------------------------------------
E|--0--10--12--0--8--10--0--7--8--0--5--7--0--3--1--



E|-----------------------------------------------
B|-----------------------------------------------
G|-----------------------------------------------
D|-----------------------------------------------
A|-----------------------------------------------
E|--0--10--12--0--8--10--0--7--8--0--5--7--0--3--
http://www.guitartabcreator.com
Guitar Tab Creator is intended to store guitar tab created through the tool. It currently does not support in-line text editing. Any text you place in here will be lost. If you need to comment on your tab, please use the "Tab Notes" section located below.