Preset Wreck

(/) Slide Up  (\) Slide Down  (h) Hammer On  (p) Pull Off  (b) Bend (r) Release (v) Vibrato


E|--------------------------------------------------------------------------------
B|--------------------------------------------------------------------------------
G|--------------------------------------------------------------------------------
D|--------------------------------------------------------------------------------
A|--------------------------------------------------------------------------------
E|--5--5--5--5--5--5--5--5--8--8--8--8--8--8--8--8--3--3--3--3--3--3--3--3--0--1--



E|--------------------------------------------------------------------------
B|--------------------------------------------------------------------------
G|--------------------------------------------------------------------------
D|--------------------------------------------------------------------------
A|--------------------------------------------------------------------------
E|--1--1--1--1--1--1--5--5--5--5--5--5--1--1--1--1--1--1--5--5--5--5--5--5--



E|-----------------------------------------------------------------------
B|-----------------------------------------------------------------------
G|-----------------------------------------------------------------------
D|-----------------------------------------------------------------------
A|-----------------------------------------------------------------------
E|--1--1--1--1--1--1--5--5--5--5--5--5--1--1--1--1--1--1--5--5--5--3--1--



E|--------------------------------------------------------------------------------------------------
B|--------------------------------------------------------------------------------------------------
G|--------------------------------------------------------------------------------------------------
D|--------------------------------------------------------------------------------------------------
A|--------------------------------------------------------------------------------------------------
E|--1--1--1--1--1--1--1--1--0--0--0--0--0--0--0--0--5--5--5--5--5--5--5--5--8--8--8--8--8--8--8--8--



E|--------------------------------------------------------------------------------------------------
B|--------------------------------------------------------------------------------------------------
G|--------------------------------------------------------------------------------------------------
D|--------------------------------------------------------------------------------------------------
A|--------------------------------------------------------------------------------------------------
E|--1--1--1--1--1--1--1--1--0--0--0--0--0--0--0--0--5--5--5--5--5--5--5--5--3--3--3--3--3--3--3--3--



E|-----------------------------------------
B|-----------------------------------------
G|-----------------------------------------
D|-----------------------------------------
A|-----------------------------------------
E|--1--1--1--1--1--1--1--1--3--3--3--3--3--
http://www.guitartabcreator.com
Guitar Tab Creator is intended to store guitar tab created through the tool. It currently does not support in-line text editing. Any text you place in here will be lost. If you need to comment on your tab, please use the "Tab Notes" section located below.