House Of Coals

(/) Slide Up  (\) Slide Down  (h) Hammer On  (p) Pull Off  (b) Bend (r) Release (v) Vibrato


E|--------------------------------------------------------
B|--------------------------------------------------------
G|-----------------------------3--------------------------
D|--------------------------3-----------------------------
A|--5--5--5--5--1--1--1--1--------5--5--5--5--1--1--1--3--
E|--------------------------------------------------------



E|--------------------------------------------------------------------------------------------
B|--------------------------------------------------------------------------------------------
G|--------------------------7-----------------------------------------------------------------
D|-----------------------7--------------------------------------------------------------------
A|--1--1--3--3--5--5--5--------1--1--3--3--5--5--5--1--1--3--3--5--5--5--------3--3--5--5--5--
E|-----------------------------------------------------------------------3--3-----------------



E|--------------------------------------------------------------------------
B|--------------------------------------------------------------------------
G|--------------------------------------------------------------------------
D|--------------------------------------------------------------------------
A|--3--3--3-----------------3--3--3-----------------3--3--3-----------------
E|-----------4--4--4--6--6-----------6--6--6--8--8-----------4--4--4--6--6--



E|-----------------------------
B|-----------------------------
G|-----------------------------
D|-----------------------------
A|--3--3--3-----------------6--
E|-----------4--4--3--3--1-----
http://www.guitartabcreator.com
Guitar Tab Creator is intended to store guitar tab created through the tool. It currently does not support in-line text editing. Any text you place in here will be lost. If you need to comment on your tab, please use the "Tab Notes" section located below.