Three ways to get to the same place from the third fret

(/) Slide Up  (\) Slide Down  (h) Hammer On  (p) Pull Off  (b) Bend (r) Release (v) Vibrato

Stave 1:

E|--------------------------------------0--1--3--
B|-----------------------------0--1--3-----------
G|-----------------------0--2--------------------
D|--------------0--2--3--------------------------
A|-----0--2--3-----------------------------------
E|--3--------------------------------------------

Stave 2:

E|--------------------------------------------3--5--
B|-----------------------------------3--5--6--------
G|--------------------------2--4--5-----------------
D|-----------------2--3--5--------------------------
A|--------2--3--5-----------------------------------
E|--3--5--------------------------------------------

Stave 3:

E|--------------------------------------------3--5--
B|--------------------------------------5--6--------
G|-----------------------------4--5--7--------------
D|--------------------3--5--7-----------------------
A|-----------3--5--7--------------------------------
E|--3--5--7-----------------------------------------

Stave 4:

E|-----------
B|-----------
G|-----------
D|-----------
A|-----------
E|-----------

http://www.guitartabcreator.com
Guitar Tab Creator is intended to store guitar tab created through the tool. It currently does not support in-line text editing. Any text you place in here will be lost. If you need to comment on your tab, please use the "Tab Notes" section located below.