Scale Practice

(/) Slide Up  (\) Slide Down  (h) Hammer On  (p) Pull Off  (b) Bend (r) Release (v) Vibrato
E|--0--0--0--0--0--0--0--0--0-----------------------
B|--0--0--0--0--0--0--0--0--0-----------------------
G|--1--2--4--6--9--6--4--2--1-----------------------
D|--2--4--6--7--9--7--6--4--2-----------------------
A|--------------------------------------------------
E|--------------------------------------------------



E|--0--0--0--0--0--0--0--0--0--
B|--0--0--0--0--0--0--0--0--0--
G|--1--2--4--6--8--6--4--2--1--
D|--2--4--6--7--9--7--6--4--2--
A|-----------------------------
E|-----------------------------



E|--0--0--0--0--0--0---0---0---0---0---0--0--0--0--0--
B|--0--0--0--0--0--0---0---0---0---0---0--0--0--0--0--
G|--1--2--4--6--9--9---11--13--11--9---9--6--4--2--1--
D|--2--4--6--7--9--11--13--14--13--11--9--7--6--4--2--
A|----------------------------------------------------
E|----------------------------------------------------



E|--0--0--0--0--0--0---0---0---0---0---0--0--0--0--0--
B|--0--0--0--0--0--0---0---0---0---0---0--0--0--0--0--
G|--1--2--4--6--8--9---11--13--11--9---8--6--4--2--1--
D|--2--4--6--7--9--11--13--14--13--11--9--7--6--4--2--
A|----------------------------------------------------
E|----------------------------------------------------
http://www.guitartabcreator.com
Guitar Tab Creator is intended to store guitar tab created through the tool. It currently does not support in-line text editing. Any text you place in here will be lost. If you need to comment on your tab, please use the "Tab Notes" section located below.