A-scale

(/) Slide Up  (\) Slide Down  (h) Hammer On  (p) Pull Off  (b) Bend (r) Release (v) Vibrato


E|-----------------------------------------------------
B|-----2-----3-----5-----7-----8-----10-----12-----14--
G|-----------------------------------------------------
D|-----2-----4-----5-----7-----9-----11-----12-----14--
A|--0-----0-----0-----0-----0-----0------0------0------
E|-----------------------------------------------------



E|-----------------------------------------------------
B|-----14-----12-----10-----8-----7-----5-----3-----2--
G|-----------------------------------------------------
D|-----14-----12-----11-----9-----7-----5-----4-----2--
A|--0------0------0------0-----0-----0-----0-----0-----
E|-----------------------------------------------------
http://www.guitartabcreator.com
Guitar Tab Creator is intended to store guitar tab created through the tool. It currently does not support in-line text editing. Any text you place in here will be lost. If you need to comment on your tab, please use the "Tab Notes" section located below.