E scale part 2

(/) Slide Up  (\) Slide Down  (h) Hammer On  (p) Pull Off  (b) Bend (r) Release (v) Vibrato

E|-----------------------------
B|-----------------------------
G|--1--2--4--6--7--9---11--13--
D|--0--0--0--0--0--0---0---0---
A|--2--4--5--7--9--11--12--14--
E|--0--0--0--0--0--0---0---0---



E|--------------------
B|--------------------
G|--6--7--9---11--13--
D|--7--9--11--12--14--
A|--0--0--0---0---0---
E|--------------------
http://www.guitartabcreator.com
Guitar Tab Creator is intended to store guitar tab created through the tool. It currently does not support in-line text editing. Any text you place in here will be lost. If you need to comment on your tab, please use the "Tab Notes" section located below.