Blackbird

(/) Slide Up  (\) Slide Down  (h) Hammer On  (p) Pull Off  (b) Bend (r) Release (v) Vibrato


E|-----------------------------------------------------------------------------
B|--0--1--3--12----5--8--7--10--8--8--7--8--5--4--3--2--1--0----5--3--2--1--0--
G|-----------------------------------------------------------------------------
D|-----------------------------------------------------------------------------
A|-----0--2--10----3--7--5--9---7--6--5--7--3--3--2--1--0-------3--2--1--0-----
E|--3------------------------------------------------------3----------------3--



E|------------------------------------------------------------
B|--0--1--3--12----5--8--7--10--8--8--7--8--5--4--3--2--1--0--
G|------------------------------------------------------------
D|------------------------------------------------------------
A|-----0--2--10----3--7--5--9---7--6--5--7--3--3--2--1--0-----
E|--3------------------------------------------------------3--



E|---------------------------------------
B|--10--8--5--3----10--8--5--3--2--1--0--
G|---------------------------------------
D|---------------------------------------
A|--8---7--3--2----8---7--3--2--1--0-----
E|------------------------------------3--
http://www.guitartabcreator.com
Guitar Tab Creator is intended to store guitar tab created through the tool. It currently does not support in-line text editing. Any text you place in here will be lost. If you need to comment on your tab, please use the "Tab Notes" section located below.