Passing rain

(/) Slide Up  (\) Slide Down  (h) Hammer On  (p) Pull Off  (b) Bend (r) Release (v) Vibrato

E|----------10----------------10--------------------------10----------------10-----------------
B|-------10----------------10----10----10--------------10----------------10----10----10--------
G|----10----------------10----------10----10--------10----------------10----------10----10-----
D|-11----------------10--------------------------11----------------10--------------------------
A|---------------------------------------------------------------------------------------------
E|---------------------------------------------------------------------------------------------



E|-------10---10----------------10----------------------10---10----------------10---------------
B|-------10------10----------10----10----10-------------10------10----------10----10----10------
G|-------10---------10----10----------10----10----------10---------10----10----------10----10---
D|-10-11---------------10-------------------------10-11---------------10------------------------
A|----------------------------------------------------------------------------------------------
E|----------------------------------------------------------------------------------------------



E|-------------10-------12-------10-------------------10-------------------10-------------
B|----------10----10-------10-------10----10-------10----10----10-------10-------10-------
G|-------10----------10-------10-------10-------10----------10----10-10-------10----10----
D|-10-11-------------------------------------10----------------------------------------10-
A|----------------------------------------------------------------------------------------
E|----------------------------------------------------------------------------------------



E|----------10-------12-------10-------------------10-------------------10-------10----
B|-------10----10-------10-------10----10-------10----10----10-------10-------10-------
G|----10----------10-------10-------10-------10----------10----10-10-------10----------
D|-11-------------------------------------10----------------------------------------10-
A|-------------------------------------------------------------------------------------
E|-------------------------------------------------------------------------------------



E|----------10-------12-------10-------------------10-------------------10-------------
B|-------10----10-------10-------10----10-------10----10----10-------10-------10-------
G|----10----------10-------10-------10-------10----------10----10-10-------10----10----
D|-11-------------------------------------10----------------------------------------10-
A|-------------------------------------------------------------------------------------
E|-------------------------------------------------------------------------------------



E|----------10-------12-------14-------15---
B|-------10----10-------10-------10---------
G|----10----------10-------10-------10------
D|-11---------------------------------------
A|------------------------------------------
E|------------------------------------------



E|----------10------------------10-------------------10---8---7-------5-------
B|-------10----10----10------10----10----10--------7----7---7-------5---5---5-
G|----10----------10------10----------10----10---6----------------5-------5---
D|-10-------------------8----------------------6----------------5-------------
A|----------------------------------------------------------------------------
E|----------------------------------------------------------------------------



E|----------10------------------12----10-------------10---8---7-------5----5----
B|-------10----10----10------10----10----10--------7----7---7-------5------5----
G|----10----------10------10----------------10---6----------------5--------5----
D|-10-------------------8----------------------6----------------5--------5------
A|------------------------------------------------------------------------------
E|------------------------------------------------------------------------------



E|-------------0-----------------------0-------------0-------
B|-------0-----------0---0-----------0---0---------0-----0---
G|-----5-----5-----5---------------5-------5-----------5-----
D|---7-----7-----------7---7-----7---------------7---------7-
A|-6-------------6-------------5---------------5-------------
E|---------------------------6---------------6---------------



E|-------------0-----------------------0-------------0-------
B|-------0-----------0---0-----------0---0---------0---0-----
G|-----5-----5-----5---------------5-------5-----------------
D|---7-----7-----------7---7-----7---------------7-------7---
A|-6-------------6-------------5---------------5-----------5-
E|---------------------------6---------------6---------------



E|-------------0-----------------------0-------------0-------
B|-------0-----------0---0-----------0---0---------0-----0---
G|-----5-----5-----5---------------5-------5-----------5-----
D|---7-----7-----------7---7-----7---------------7---------7-
A|-6-------------6-------------5---------------5-------------
E|---------------------------6---------------6---------------



E|-------------0-----------------------0---------------0---------------0-----
B|-------0-----------0---0-----------0---0-----------0---0-----------0---0---
G|-----5-----5-----5---------------0-------0-------0-------0-------0-------0-
D|---7-----7-----------7---7-----7---------------7---------------3-----------
A|-6-------------6-------------5---------------5---------------5-------------
E|---------------------------6---------------4---------------2---------------



E|---------------0-------
B|-----------0h2---2p0---
G|-------0h1-----------0-
D|-----0-----------------
A|---0-------------------
E|-1---------------------



E|-----------0---------------0---------------0-------5-
B|---------0---0-----------0---0-----------0---0-----7-
G|-------0-------0-------0-------0-------0-------0---5-
D|-----7---------------7---------------3-------------5-
A|---5---------------5---------------5---------------6-
E|-6---------------4---------------2-------------------



E|-------------5-------------7---5-------------5-------------7---9\7-5-
B|-----------5---5---------5---5---5---------5---5---------5---5-----5-
G|---------5-------5-----5-----------5-----5-------5-----5-----------5-
D|-------5-------------5-----------------5-------------5-------------5-
A|-----6-------------6-----------------5-------------5-----------------
E|-9-8-----------------------------------------------------------------



E|---------5-------------7---5h7p5-----------5-------------9---7---5-
B|-------5---5---------5---5-------5-------5---5---------5---5---5-5-
G|-----5-------5-----5-------------------5-------5-----5-----------5-
D|---5-------------5-------------------5-------------5---------------
A|-6-------------6-------------------5-------------5-----------------
E|-------------------------------------------------------------------



E|---------5-------------7---5-------------5-------------7---9\7-5-
B|-------5---5---------5---5---5---------5---5---------5---5-----5-
G|-----5-------5-----5-----------5-----5-------5-----5-----------5-
D|---5-------------5-----------------5-------------5---------------
A|-6-------------6-----------------5-------------5-----------------
E|-----------------------------------------------------------------



E|---------5-------------7-----5---
B|-------5---5---------5---5-------
G|-----5-------5-----5-------5-----
D|---5-------------5-------------5-
A|-6-------------6-----------------
E|---------------------------------
http://www.guitartabcreator.com
Guitar Tab Creator is intended to store guitar tab created through the tool. It currently does not support in-line text editing. Any text you place in here will be lost. If you need to comment on your tab, please use the "Tab Notes" section located below.