Exercises

(/) Slide Up  (\) Slide Down  (h) Hammer On  (p) Pull Off  (b) Bend (r) Release (v) Vibrato


E|--------------------------------------------------------------------------0--1--2--3--4--
B|-----------------------------------------------------------0--1--2--3--4-----------------
G|-----------------------------------------------0--1--2--3--------------------------------
D|--------------------------------0--1--2--3--4--------------------------------------------
A|-----------------0--1--2--3--4-----------------------------------------------------------
E|--0--1--2--3--4--------------------------------------------------------------------------



E|--4--3--2--1--0--------------------------------------------------------------------------
B|-----------------4--3--2--1--0-----------------------------------------------------------
G|--------------------------------3--2--1--0-----------------------------------------------
D|--------------------------------------------4--3--2--1--0--------------------------------
A|-----------------------------------------------------------4--3--2--1--0-----------------
E|--------------------------------------------------------------------------4--3--2--1--0--



E|--------------------------------------------------------------1--3--2--4--2--3--1--------------
B|--------------------------------------------------1--3--2--4-----------------------4--2--3--1--
G|--------------------------------------1--3--2--4-----------------------------------------------
D|--------------------------1--3--2--4-----------------------------------------------------------
A|--------------1--3--2--4-----------------------------------------------------------------------
E|--1--3--2--4-----------------------------------------------------------------------------------



E|-----------------------------------------------------
B|-----------------------------------------------------
G|--4--2--3--1-----------------------------------------
D|--------------4--2--3--1-----------------------------
A|--------------------------4--2--3--1-----------------
E|--------------------------------------4--2--3--1--0--



E|-----------------------------------------------------------------------------------------
B|--------------------------------------2--4--5--4--2--------------------------------------
G|-----------------------------1--2--4-----------------4--2--1-----------------------------
D|--------------------1--2--4-----------------------------------4--2--1--------------------
A|-----------0--2--4-----------------------------------------------------4--2--0-----------
E|--0--2--4-----------------------------------------------------------------------4--2--0--



E|--------------------------------------2--4--5--4--2--------------------------------------
B|-----------------------------2--3--5-----------------5--3--2-----------------------------
G|--------------------1--2--4-----------------------------------4--2--1--------------------
D|-----------0--2--4-----------------------------------------------------4--2--0-----------
A|--0--2--4-----------------------------------------------------------------------4--2--0--
E|-----------------------------------------------------------------------------------------



E|-----------------------------------------------------------------------------------------
B|--------------------------------------1--3--5--3--1--------------------------------------
G|-----------------------------0--2--4-----------------4--2--0-----------------------------
D|--------------------0--2--4-----------------------------------4--2--0--------------------
A|-----------0--2--3-----------------------------------------------------3--2--0-----------
E|--0--2--3-----------------------------------------------------------------------3--2--0--



E|--------------------------------------1--3--5--3--1--------------------------------------
B|-----------------------------1--3--5-----------------5--3--1-----------------------------
G|--------------------0--2--4-----------------------------------4--2--0--------------------
D|-----------0--2--3-----------------------------------------------------3--2--0-----------
A|--0--2--3-----------------------------------------------------------------------3--2--0--
E|-----------------------------------------------------------------------------------------



E|-9-8-7-6----------------------------------------------------------------------------------
B|---------10-9-8-7-------------------------------------------------------------------------
G|------------------10-9-8-7----------------------------------------------------------------
D|---------------------------11-10-9-8--------------------------------------------8-9-10-11-
A|-------------------------------------12-11-10-9----------------------9-10-11-12-----------
E|------------------------------------------------13-12-11-10-11-12-13----------------------



E|-------------------6-7-8-9-|-----------------------------------------------------------
B|----------7-8-9-10---------|-------------------------2-4-6-4-2-------------------------
G|-7-8-9-10------------------|-------------------1-3-5-----------5-3-1-------------------
D|---------------------------|-------------1-3-5-----------------------5-3-1-------------
A|---------------------------|-------1-3-4-----------------------------------4-3-1-------
E|---------------------------|-1-3-4-----------------------------------------------4-3-1-



E|-------------------------2-4-6-4-2---------------------------
B|-------------------2-4-6-----------6-4-2---------------------
G|-------------1-3-5-----------------------5-3-1---------------
D|-------1-3-4-----------------------------------4-3-1---------
A|-1-3-4-----------------------------------------------4-3-1---
E|-------------------------------------------------------------



E|--------------------12-9---------------------
B|-----------------11------10------------------
G|----------9---10------------11----12---------
D|-------10---9------------------12----11------
A|----11----------------------------------10---
E|-12----------------------------------------9-



E|-12h15p12----12h15p12----12h15p12--------------------------------------------------------
B|----------15----------15----------15-12h15p12--------------------------------------------
G|----------------------------------------------14-12h14p12--------------------------------
D|----------------------------------------------------------14-12h14p12--------------------
A|----------------------------------------------------------------------14-12p11p10--------
E|----------------------------------------------------------------------------------10//12-
http://www.guitartabcreator.com
Guitar Tab Creator is intended to store guitar tab created through the tool. It currently does not support in-line text editing. Any text you place in here will be lost. If you need to comment on your tab, please use the "Tab Notes" section located below.