Kulturyngel

(/) Slide Up  (\) Slide Down  (h) Hammer On  (p) Pull Off  (b) Bend (r) Release (v) Vibrato


E|--------------------------------------
B|--------------------------------------
G|--------------------------------------
D|--------4-----3-----2--0--------------
A|-----------3-----2--------0-----------
E|--1--0-----------------------0--3--0--



E|--------------------------------------------
B|--------------------------------------------
G|--------------------------------------------
D|--------------------------------------------
A|--------------------------------------------
E|--0--0--0--0--0--1--0--3--0--4--0--1--4--6--



E|--------------------------------------------------------------
B|--------------------------------------------------------------
G|--------------------------------------------------------------
D|--------------0--0--------4--------3--2--1--2-----------------
A|--------------------1--4-----3--2--------------4--------------
E|--0--0--0--0--------------------------------------0--0--0--0--
http://www.guitartabcreator.com
Guitar Tab Creator is intended to store guitar tab created through the tool. It currently does not support in-line text editing. Any text you place in here will be lost. If you need to comment on your tab, please use the "Tab Notes" section located below.