debate de 4 revised

(/) Slide Up  (\) Slide Down  (h) Hammer On  (p) Pull Off  (b) Bend (r) Release (v) Vibrato

E|-----------5--5h7p5--5--------------5--5h7p5--5-----5-----------------------------
B|--------5---------------5--------5---------------5--5--------8--------8-----------
G|-----5------------------------5---------------------5-----7--------7--------7-----
D|--7------------------------7------------------------7--9--------9--------9--------
A|----------------------------------------------------------------------------------
E|----------------------------------------------------------------------------------



E|--------------------------------------------------------------------------------------------
B|----------10----------10--------8--------8--------------5--------5--------8--------8-----8--
G|------10----------10---------7--------7--------7-----5--------5--------7--------7-----------
D|--10----------10----------9--------9--------9-----7--------7--------9--------9--------9-----
A|--------------------------------------------------------------------------------------------
E|--------------------------------------------------------------------------------------------



E|--
B|--
G|--
D|--
A|--
E|--



E|----------------------8---------------------------8---------8--------------------
B|----------10------10-----------8--------8-----10--------10-----------8--------8--
G|------10------10------------7--------7-----9---------9------------7--------7-----
D|--10---------------------9--------9----------------------------9--------9--------
A|---------------------------------------------------------------------------------
E|---------------------------------------------------------------------------------



E|----------10----------8----------------------------8----------8--------------------
B|------10----------10-----------8--------8------10---------10-----------8--------8--
G|--10----------10------------7--------7-----10---------10------------7--------7-----
D|-------------------------9--------9------------------------------9--------9--------
A|-----------------------------------------------------------------------------------
E|-----------------------------------------------------------------------------------



E|----------10----------8-----------------------------------------------------------------
B|------10----------10-----------8--------8-----------------------------------------------
G|--10----------10------------7--------7-----9--7--9--7--9--7--5--10--9--10--9--10--9--7--
D|-------------------------9--------9-----------------------------------------------------
A|----------------------------------------------------------------------------------------
E|----------------------------------------------------------------------------------------



E|--5--7--------------------------------------------------|--12----------12------12--
B|--6--8--------------------------------------------------|------13----------13------
G|--7--9--9--7--9--7--7--9--7--5--12--10--9--10--10p9--7--|----------14--------------
D|--------------------------------------------------------|--------------------------
A|--------------------------------------------------------|--------------------------
E|--------------------------------------------------------|--------------------------



E|--10----------10------10------8----------8------8------7-----7-----7--8--
B|------12----------12------12-----10---------10-----10--9--9-----9--------
G|----------12-------------------------10----------------------------------
D|-------------------------------------------------------------------------
A|-------------------------------------------------------------------------
E|-------------------------------------------------------------------------



E|--10--8p7--5h7p5--
B|------------------
G|------------------
D|------------------
A|------------------
E|------------------
http://www.guitartabcreator.com
Guitar Tab Creator is intended to store guitar tab created through the tool. It currently does not support in-line text editing. Any text you place in here will be lost. If you need to comment on your tab, please use the "Tab Notes" section located below.