debate de 4

(/) Slide Up  (\) Slide Down  (h) Hammer On  (p) Pull Off  (b) Bend (r) Release (v) Vibrato

E|-----------5--5h7p5--5-----------5--5h7p5--5--5--------------------------
B|--------5---------------------5---------------5--------8--------8--------
G|-----5---------------------5------------------5-----7--------7--------7--
D|--7---------------------7---------------------7--9--------9--------9-----
A|-------------------------------------------------------------------------
E|-------------------------------------------------------------------------



E|--------------------------------------------------------------------
B|----------10----------10--------8--------8--------------5--------5--
G|------10----------10---------7--------7--------7-----5--------5-----
D|--10----------10----------9--------9--------9-----7--------7--------
A|--------------------------------------------------------------------
E|--------------------------------------------------------------------



E|----------------------------------------------8--------------------
B|--------8--------8-----8----------10------10-----------8--------8--
G|-----7--------7---------------10------10------------7--------7-----
D|--9--------9--------9-----10---------------------9--------9--------
A|-------------------------------------------------------------------
E|-------------------------------------------------------------------



E|--------7--------7--
B|-----9--------9-----
G|--8--------8--------
D|--------------------
A|--------------------
E|--------------------
http://www.guitartabcreator.com
Guitar Tab Creator is intended to store guitar tab created through the tool. It currently does not support in-line text editing. Any text you place in here will be lost. If you need to comment on your tab, please use the "Tab Notes" section located below.