eto na bullet

(/) Slide Up  (\) Slide Down  (h) Hammer On  (p) Pull Off  (b) Bend (r) Release (v) Vibrato

(/) Slide Up (\) Slide Down (h) Hammer On (p) Pull Off (b) Bend (r) Release (v) Vibrato


E|------------------------------
B|------------------------------
G|------12--12--11------12--11h12--
D|------------------------------
A|------------------------------
E|--12--------------11----------



E|-----------------
B|--7-7-7-8-7-8----
G|-----------------
D|--7-7-7-7-7-7----
A|--7-7-7-7-7-7----
E|-----------------
E|--
B|--
G|--
D|--
A|--
E|--
http://www.guitartabcreator.com
Guitar Tab Creator is intended to store guitar tab created through the tool. It currently does not support in-line text editing. Any text you place in here will be lost. If you need to comment on your tab, please use the "Tab Notes" section located below.