Patience

(/) Slide Up  (\) Slide Down  (h) Hammer On  (p) Pull Off  (b) Bend (r) Release (v) Vibrato



E|-8-8--8/10\8-----------8-8--8/10/8-10/12----8-8--8/10/8---------------10/12--10-10-12/14-12-10-12-10
B|-------------10/12--8----------------------------------10/12--10-8-8--------------------------------
G|----------------------------------------------------------------------------------------------------
D|----------------------------------------------------------------------------------------------------
A|----------------------------------------------------------------------------------------------------
E|----------------------------------------------------------------------------------------------------


E|---------------------------------------------------------------------------------------------------
B|------5-8------------------------------------5-8--------------------8--10br-p8----------------------
G|--7b------7br-5-7--------4-7-------------7b-----------7br--5--7-7/9----------9-------------------
D|---------------------7b---------7br-5--------------------------------------------------------------
A|--------------------------------------------------------------------------------------------------
E|--------------------------------------------------------------------------------------------------


E|----------------------------------------------------------------------------------------------------
B|--8--10--10b--10--10--8--10b--8--10----8--10--8/12--10----------------------------7br------------7br
G|-------------------------------------9------------------7/9--7-------4p2-----2----------4p2---------
D|-------------------------------------------------------------------------3h4---0-----------3h4--0--
A|----------------------------------------------------------------------------------------------------
E|----------------------------------------------------------------------------------------------------
Guitar Tab Creator is intended to store guitar tab created through the tool. It currently does not support in-line text editing. Any text you place in here will be lost. If you need to comment on your tab, please use the "Tab Notes" section located below.