3.1.13 take2 drop D

(/) Slide Up  (\) Slide Down  (h) Hammer On  (p) Pull Off  (b) Bend (r) Release (v) Vibrato


E|-------------------------------------------------------------------
B|-------------------------------------------------------------------
G|-------------------------------------------------------------------
D|-------------------------------------------------------------------
A|-----3--5-----3--5-----8\7-----8\7-----3--5-----5-----8\7-----8\7--
D|--0--------0--------5-------5-------0--------0-----5-------5-------



E|-----------------------------------------------------------------------------
B|-----------------------------------------------------------------------------
G|-----------------------------------------------------------------------------
D|-----------------------------------------------------------------------------
A|-----0-----5--3--0-----------0-----5--3--0-----------0-----5--3--0-----------
D|--0-----0-----------6--5--0-----0-----------6--5--0-----0-----------6--5-----



E|------------------------------------------------------------------------------
B|------------------------------------------------------------------------------
G|------------------------------------------------------------------------------
D|--0--0--0--0--7\6--0--6\5--5--5--5--5--5--5--0--0--0--0--7\6--0--6\5-4--3--2--
A|--0--0--0--0--7-6--0--6-5--5--5--5--5--5--5--0--0--0--0--7-6--0--6-5-4--3--2--
D|--0--0--0--0--7-6--0--6-5--5--5--5--5--5--5--0--0--0--0--7-6--0--6-5\4--3--2--



E|-------------------------------------------
B|-------------------------------------------
G|-------------------------------------------
D|-------------------------------------------
A|-------------------------------------------
D|--0--3b0--5b0--7b0--5b0--3b0--5b0--7b0--5b-
http://www.guitartabcreator.com
Guitar Tab Creator is intended to store guitar tab created through the tool. It currently does not support in-line text editing. Any text you place in here will be lost. If you need to comment on your tab, please use the "Tab Notes" section located below.