17 january 2013

(/) Slide Up  (\) Slide Down  (h) Hammer On  (p) Pull Off  (b) Bend (r) Release (v) Vibrato


E|-----------------------------------------------------------------------------
B|-----------------------------------------------------------------------------
G|-----------4--2--4--------------------------4--2--4--------------------------
D|--0--1--2-----------5--4--0-----------1--2-----------5--4--0--0--1--1--0--1--
A|-----------------------------5--4--0-----------------------------------------
E|-----------------------------------------------------------------------------



E|--------------------------------------------------------------------------
B|--------------------------------------------------------------------------
G|--------------------------------------------------------------------------
D|--2--2--2--2--5--5--5--5--2--7--5--4--2--2--2--2--5--5--5--5--2--7--5--4--
A|--2--2--2--2--5--5--5--5--2--7--5--4--2--2--2--2--5--5--5--5--2--7--5--4--
E|--------------3--3--3--3-----5--3--2--------------3--3--3--3-----5--3--2--



E|--------------------------------------------------------------------------------
B|--------------------------------------------------------------------------------
G|-----------0--------------------5--------------------------------------5--------
D|--2--2--2--2--5--4--2--2--2--2--5--5--4--2--2--2--2--5--4--2--2--2--2--5--5--4--
A|--2--2--2--2--5--4--2--2--2--2--3--5--4--2--2--2--2--5--4--2--2--2--2--3--5--4--
E|--------------3--2-----------------3--2--------------3--2-----------------3--2--



E|-----------------------------------------------------------------------------
B|-----------------------------------------------------------------------------
G|-----------------------------------------------------------------------------
D|--------2--------2--------------5--------5--------------7--------5-----------
A|-----2--------2--------2-----5--------5--------5-----7--------5--------5-----
E|--0--------0--------0-----3--------3--------3-----5--------3--------3--------



E|--------------------------
B|--------------------------
G|--------------------------
D|--------7--------5--------
A|-----7--------5--------4--
E|--5--------3--------2-----
http://www.guitartabcreator.com
Guitar Tab Creator is intended to store guitar tab created through the tool. It currently does not support in-line text editing. Any text you place in here will be lost. If you need to comment on your tab, please use the "Tab Notes" section located below.