Time to Gauge Up

(/) Slide Up  (\) Slide Down  (h) Hammer On  (p) Pull Off  (b) Bend (r) Release (v) Vibrato


E|---------------------------------------------------------------------------
B|---------------------------------------------------------------------------
G|---------------------------------------------------------------------------
D|---------------------------------------------------------------------------
A|-0-0-12-0-13-0-10-12-0-0-8-0-10-0-8-7-0-0-12-0-13-0-10-12-0-0-10\8-0-0-8/7-
E|---------------------------------------------------------------------------



E|----------------------------------------------------------------------------------
B|----------------------------------------------------------------------------------
G|----------------------------------------------------------------------------------
D|----------------------------------------------------------------10-12-------11-13-
A|-0-0-12-0-13-0-10-12-0-0-8-0-10-0-8-7-0-0-12-0-13-0-10-12-10-12-------11-13-------
E|----------------------------------------------------------------------------------



E|--------------------------------------------------------------------------
B|--------------------------------------------------------------------------
G|--------------------------------------------------------------------------
D|--------------------------------------------------------------------------
A|-----12---13---10-12-----8---10---8-7-----12---13---8-10-----10\8-----8\7-
E|-0-0----0----0-------0-0---0----0-----0-0----0----0------0-0------0-0-----



E|--------------------------------------------------------------------------
B|--------------------------------------------------------------------------
G|--------------------------------------------------------------------------
D|--------------------------------------------------------------------------
A|-----12---13---10-12-----8---10---8-7-----12---13---8-10-----10\8-----8\7-
E|-0-0----0----0-------0-0---0----0-----0-0----0----0------0-0------0-0-----



E|----------------------------------------------------------------------
B|----------------11----------------------------------------------------
G|----------------14\0--------------------------------------------------
D|----------------------------------------------------------------------
A|--------------------------------------12-13-10-12--------------8-10-7-
E|-0-0---0-0-0-0----------0-0-0--0-0-0--------------0-0-0--0-0-0--------



E|----------------------------------------------
B|----------------------------------------------
G|----------------------------------------------
D|----------------------------------------------
A|--------------12-13-10-12--------------7-8-10-
E|-0-0-0--0-0-0-------------0-0-0--0-0-0--------
Guitar Tab Creator is intended to store guitar tab created through the tool. It currently does not support in-line text editing. Any text you place in here will be lost. If you need to comment on your tab, please use the "Tab Notes" section located below.