Unborn

(/) Slide Up  (\) Slide Down  (h) Hammer On  (p) Pull Off  (b) Bend (r) Release (v) Vibrato

Stave 1:

E|-------------------------|--------------------------------------|--
B|-------------------------|--------------------------------------|--
G|--------9----------9-----|--------9--------9--------9--------9--|--
D|-----7-----7----7-----8--|-----7--------7--------8--------8-----|--
A|--0----------------------|--0--------0--------0--------0--------|--
E|-------------------------|--------------------------------------|--

Stave 2:

E|-------------------|--
B|-------------------|--
G|-------------------|--
D|--7/8--7--7/5--7v--|--
A|--0----0--0----0---|--
E|--0----0--0----0---|--

http://www.guitartabcreator.com
Guitar Tab Creator is intended to store guitar tab created through the tool. It currently does not support in-line text editing. Any text you place in here will be lost. If you need to comment on your tab, please use the "Tab Notes" section located below.