through my eyes

(/) Slide Up  (\) Slide Down  (h) Hammer On  (p) Pull Off  (b) Bend (r) Release (v) Vibrato


E|---------0-----------------0-------------0---------------------
B|---0-------0---------0-----0-------------0---------------------
G|-----2-------2---------5-------0---0-------0-------------------
D|-------2-------2-0-3-----3-----------5-------5-----------------
A|-0---------------------------0---3-----3-------3/5-5h7-5-3h5-3-
E|---------------------------------------------------------------



E|---------0-----------------0-------------0-------------------
B|---0-------0---------------0-------------0-------------------
G|-----2-------2-------0---------0---0-------0-----------------
D|-------2-------2-0-3---5-------------5-------5---------------
A|-0-----------------------3---0---3-----3-------3/5-5/7-7h8-7-
E|-------------------------------------------------------------



E|-0-0---0---0-----0-0-0-0-0-0-0-0--0---0---0-------0-0-0-0-0-0-0-0-0-
B|-0-0---0-----0---1-1-1-1-1-1-1-1--0---0-----0-----0-0-0-0-0-0-0-0-0-
G|-2-2---5-------5-0-0-0-0-0-0-0-0--2---5-------5---0-0-0-0-0-0-0-0-0-
D|-2-2---3-3-------2-2-2-2-2-2-2-2--2---3-3-------3-5-5-5-5-5-5-5-5-5-
A|-0-0---0---------3-3-3-3-3-3-3-3--0---0-----------3-3-3-3-3-3-3-3-3-
E|-0-0---0---------0-0-0-0-0-0-0-0--0---0-----------0-0-0-0-0-0-0-0-0-



E|-
B|-
G|-
D|-
A|-
E|-
http://www.guitartabcreator.com
Guitar Tab Creator is intended to store guitar tab created through the tool. It currently does not support in-line text editing. Any text you place in here will be lost. If you need to comment on your tab, please use the "Tab Notes" section located below.