Spiritual pre-chorus 2

(/) Slide Up  (\) Slide Down  (h) Hammer On  (p) Pull Off  (b) Bend (r) Release (v) Vibrato


E|------------------------------------------------------------
B|------------------------------------------------------------
G|--0--10--12--0--10--12--0--10--12--0--10--12--0--10--12--0--
D|------------------------------------------------------------
A|------------------------------------------------------------
E|------------------------------------------------------------



E|------------------------------------------------------------
B|------------------------------------------------------------
G|--0--13--15--0--13--15--0--15--17--0--15--17--0--15--17--0--
D|------------------------------------------------------------
A|------------------------------------------------------------
E|------------------------------------------------------------



E|------------------------------------------------------------
B|------------------------------------------------------------
G|--0--17--19--0--17--19--0--19--20--0--19--20--0--19--20--0--
D|------------------------------------------------------------
A|------------------------------------------------------------
E|------------------------------------------------------------



E|------------------------------------------------------------
B|-----18--20-----18--20-----18--20-----18--20-----18--20-----
G|--0----------0----------0----------0----------0----------0--
D|------------------------------------------------------------
A|------------------------------------------------------------
E|------------------------------------------------------------



E|--------------18--
B|--20--15--16--16--
G|--17--17--17--17--
D|------------------
A|------------------
E|------------------
http://www.guitartabcreator.com
Guitar Tab Creator is intended to store guitar tab created through the tool. It currently does not support in-line text editing. Any text you place in here will be lost. If you need to comment on your tab, please use the "Tab Notes" section located below.