Spiritual pre-chorus

(/) Slide Up  (\) Slide Down  (h) Hammer On  (p) Pull Off  (b) Bend (r) Release (v) Vibrato

E|---------------------------------------------------------------------------
B|--------------------11--11-------------------------------------------------
G|--10--10--10--9--8-------------10--10--------------------------------------
D|----------------------------8-------------10--10-----10-----11--10--8--10--
A|---------------------------------------8----------8------8-----------------
E|---------------------------------------------------------------------------



E|----------------------------------------------------------
B|-----11--11-----------------------------------------------
G|--8-------------10--10----------------0--8--10------------
D|-------------8-------------10--10---------------0--8--10--
A|------------------------8----------8----------------------
E|----------------------------------------------------------



E|------------------------------------------------------------
B|-----11--11-------------------------------------------------
G|--8-------------10--10----------------0--10--12-------------
D|-------------8-------------10--10----------------0--10--12--
A|------------------------8----------8------------------------
E|------------------------------------------------------------



E|---------------------------------------------------------------------------
B|-----11--11----------------------------------------------------------------
G|--8-------------10--10----------------0--12--15----------------------------
D|-------------8-------------10--10----------------0--13--15--13--0--12--13--
A|------------------------8----------8-------------------------------10--10--
E|-------------------------------------------------------------------10--10--
http://www.guitartabcreator.com
Guitar Tab Creator is intended to store guitar tab created through the tool. It currently does not support in-line text editing. Any text you place in here will be lost. If you need to comment on your tab, please use the "Tab Notes" section located below.