Spiritual Chorus

(/) Slide Up  (\) Slide Down  (h) Hammer On  (p) Pull Off  (b) Bend (r) Release (v) Vibrato


E|----------------------------------------------------------------------
B|---------------------------------------10--11--13--11--10-------------
G|-----0--5--7--5--0-----0--7--0--10--0----------------------12--10--9--
D|--5-----------------8-------------------------------------------------
A|----------------------------------------------------------------------
E|----------------------------------------------------------------------



E|--------------------------------------------------
B|--------------------------------------------------
G|-----0--3--5--3--0-----0--3--1--0-----------------
D|--3-----------------1--------------3--1--0--------
A|--------------------------------------------1--0--
E|--------------------------------------------------



E|----------------------------
B|----------------------------
G|--2--3-------2--0-----------
D|--0--0--5----0--0--5--3--3--
A|--0-----3----0-----3--1--1--
E|--0-----3----0-----3--1--1--
http://www.guitartabcreator.com
Guitar Tab Creator is intended to store guitar tab created through the tool. It currently does not support in-line text editing. Any text you place in here will be lost. If you need to comment on your tab, please use the "Tab Notes" section located below.