Beachball Spiritual

(/) Slide Up  (\) Slide Down  (h) Hammer On  (p) Pull Off  (b) Bend (r) Release (v) Vibrato

E|--------------------------------------------------------
B|--------------------------------------------------------
G|--0--1--3-----------0--3--5-----------------------------
D|-----------0--1--3-----------0--3--5--0--3--5--0--3--5--
A|--------------------------------------------------------
E|--------------------------------------------------------



E|----------
B|----------
G|----------
D|--12--13--
A|--10--10--
E|--10--10--



E|-------------------------------------------------------------
B|-------------------------------------------------------------
G|---------------------------------------10--12----------------
D|-----0--5--7--5--0-----0--7--0--10--0----------0--10--12--0--
A|--5-----------------8----------------------------------------
E|-------------------------------------------------------------



E|-----------------------------------------------------------
B|-----------------------------------------------------------
G|------------------------------------10--10--10--9----------
D|-----0--5--7--5--0-----0--7--0--10-----------------12--10--
A|--5-----------------8--------------------------------------
E|-----------------------------------------------------------
http://www.guitartabcreator.com
Guitar Tab Creator is intended to store guitar tab created through the tool. It currently does not support in-line text editing. Any text you place in here will be lost. If you need to comment on your tab, please use the "Tab Notes" section located below.