Untitled Alt Tuning

(/) Slide Up  (\) Slide Down  (h) Hammer On  (p) Pull Off  (b) Bend (r) Release (v) Vibrato

Guitar 1 - Intro and general riff

D |-------------0---------------
B |-2p0---------0--2h3p2---0----
G |-----2p0-----0--------2------
C#|---------3p1-1---------------
G |-------------0---------------
D |-------------0---------------

Guitar 2 - Intro and general riff

D |-5p4p2p0------0--2h4p2p0---0-
B |---------2p0--0----------2---
G |--------------0--------------
C#|--------------1--------------
G |--------------0--------------
D |--------------0--------------

Guitar 1 - Verse

D |-0--0--0------0--0--0--
B |-0--2--2/3\2--0--0--0--
G |-0--0--0------0--2--0--
C#|-1--1--1------1--1--1--
G |-0--0--0------0--0--0--
D |-0--0--0------0--0--0--

Guitar 2 - Verse

D |-5--7--9--0--0--0--5p4-
B |-0--0--0--5--0--0--0---
G |-0--0--0--0--0--4--0---
C#|-6--6--6--6--6--6--6---
G |-0--0--0--0--0--0--0---
D |-0--0--0--0--0--0--0---

Guitar 1 - Prechorus

D |-0-----0--2--
B |-0-----0--2--
G |-0-----0--0--
C#|-1-----5--3--
G |-0-----4--2--
D |-x--4--2--0--

Guitar 2 - Prechorus

D |-x--x--0--
B |-5--7--8--
G |-0--0--0--
C#|-6--8--10-
G |-x--x--9-
D |-x--x--9--

Guitar 1 - Chorus x2 then

D |---------------0-----------------|-----------4--2--2--
B |-2h3p2p0---0---0--2p0------------|-2h3p2p0------2--2--
G |---------2-----0-------2p0-------|---------2----2--2--
C#|---------------1------------3p1--|--------------3--5--
G |---------------0-----------------|--------------2--2--
D |---------------0-----------------|--------------2--4--

Guitar 2 - Chorus x2 then

D |---------------0-----------------|----------------0--2--
B |---------------0--2p0------------|----------------2--2--
G |---------------0-------2p0-------|----------------2--2--
C#|-3h5p3p1p0h1---1------------3p1--|-3h5p3p1p0h1p0--0--5--
G |---------------0-----------------|----------------2--2--
D |---------------0-----------------|----------------2--4--



Guitar Tab Creator is intended to store guitar tab created through the tool. It currently does not support in-line text editing. Any text you place in here will be lost. If you need to comment on your tab, please use the "Tab Notes" section located below.