Song project

(/) Slide Up  (\) Slide Down  (h) Hammer On  (p) Pull Off  (b) Bend (r) Release (v) Vibrato

E|--------------------------------------
B|--------------------------------------
G|--------------------------------------
D|--------7--------7--------7--------7--
A|-----5--------5--------5--------5-----
E|--5--------5--------5--------5--------



E|--------------------------------------
B|--------------------------------------
G|--------------------------------------
D|--------5--------5--------5--------5--
A|-----3--------3--------3--------3-----
E|--3--------3--------3--------3--------



E|--------------------------------------
B|--------------------------------------
G|--------------------------------------
D|--------7--------7--------7--------7--
A|-----5--------5--------5--------5-----
E|--5--------5--------5--------5--------



E|--------------------------------------------------
B|--------------------------------------------------
G|--------------------------------------------------
D|--------------------3--------3--------3--------3--
A|-----5-----3-----1--------1--------1--------1-----
E|--5-----3-----1--------1--------1--------1--------



E|--------------------------------------------------------------------------------------
B|--------------------------------------------------------------------------------------
G|--------------------------------------------------------------------------------------
D|--5--7--7--7--7--7--7--7--7--5--5--5--5--5--5--5--7--7--7--7--5--5--3--3--3--3--3--3--
A|--3--5--5--5--5--5--5--5--5--3--3--3--3--3--3--3--5--5--5--5--3--3--1--1--1--1--1--1--
E|--3--5--5--5--5--5--5--5--5--3--3--3--3--3--3--3--5--5--5--5--3--3--1--1--1--1--1--1--



E|--------------------------------------------------------------
B|--------------------------------------------------------------
G|--------------------------------------------------------------
D|--5--7--7--7--7--5--5--5--3--3--3--3--5--5--5--5--7--7--7--7--
A|--3--5--5--5--5--3--3--3--1--1--1--1--3--3--3--3--5--5--5--5--
E|--3--5--5--5--5--3--3--3--1--1--1--1--3--3--3--3--5--5--5--5--



E|-------------------------------------------------------------
B|-------------------------------------------------------------
G|-------------------------------------------------------------
D|--10--10--10--10--10--10--10--10--7--7--7--7--7--7--7--7--7--
A|--8---8---8---8---8---8---8---8---5--5--5--5--5--5--5--5--5--
E|--8---8---8---8---8---8---8---8---5--5--5--5--5--5--5--5--5--



E|------------------------------------------------------------------
B|------------------------------------------------------------------
G|------------------------------------------------------------------
D|--10--10--10--10--10--10--10--10--10--10--10--10--12--12--12--12--
A|--8---8---8---8---8---8---8---8---8---8---8---8---10--10--10--10--
E|--8---8---8---8---0---0---0---0---8---8---8---8---10--10--10--10--



E|----------------------------------------------------------------------------------
B|----------------------------------------------------------------------------------
G|----------------------------------------------------------------------------------
D|--------10--------10--------10--------10--------10--------10--------10--------10--
A|-----8---------8---------8---------8---------8---------8---------8---------8------
E|--8---------8---------8---------8---------0---------0---------0---------0---------



E|------------------------------------------------------------------------------------------
B|------------------------------------------------------------------------------------------
G|------------------------------------------------------------------------------------------
D|--------10--------10--------10--------10----------12----------12----------12----------12--
A|-----8---------8---------8---------8----------10----------10----------10----------10------
E|--8---------8---------8---------8---------10----------10----------10----------10----------



E|----------------------
B|----------------------
G|----------------------
D|--10--10--10--10--10--
A|--8---8---8---8---8---
E|--8---8---8---8---8---
http://www.guitartabcreator.com
Guitar Tab Creator is intended to store guitar tab created through the tool. It currently does not support in-line text editing. Any text you place in here will be lost. If you need to comment on your tab, please use the "Tab Notes" section located below.