Random Solo 2

(/) Slide Up  (\) Slide Down  (h) Hammer On  (p) Pull Off  (b) Bend (r) Release (v) Vibrato


E|--------------------------------------16--15--13--------------------------15h13\7v--
B|--------------------------16--15--13------------------------------------------------
G|------------------16--13--------------------------16--------------------------------
D|----------15--13--------------------------------------15----------------------------
A|--15--14--------------------------------------------------15--14--------------------
E|------------------------------------------------------------------15--13------------



E|----------------------------------15--13--12-----------------------------------------------
B|--------------------------15--14--------------15--14---------------------------------------
G|--------------15--14--12------------------------------15--14--12---------------------------
D|--15--14--12------------------------------------------------------15--14-------------------
A|--------------------------------------------------------------------------16--13-----------
E|----------------------------------------------------------------------------------15--13v--
http://www.guitartabcreator.com
Guitar Tab Creator is intended to store guitar tab created through the tool. It currently does not support in-line text editing. Any text you place in here will be lost. If you need to comment on your tab, please use the "Tab Notes" section located below.