Not Ready to Die "A7X"

(/) Slide Up  (\) Slide Down  (h) Hammer On  (p) Pull Off  (b) Bend (r) Release (v) Vibrato


E|--17--13--------------------------------------13--17--13--16----
B|----------16--14----------------------14--16--------------------
G|------------------16--15------15--16----------------------------
D|--------------------------15------------------------------------
A|----------------------------------------------------------------
E|----------------------------------------------------------------



E|--16--12--------------------------------------12--16--12--15--
B|----------15--14----------------------14--15------------------
G|------------------15--13------13--15--------------------------
D|--------------------------15----------------------------------
A|--------------------------------------------------------------
E|--------------------------------------------------------------



E|--13--10--------------------------------------10--13--10--11--
B|----------12--11----------------------11--12------------------
G|------------------12--11------11--12--------------------------
D|--------------------------12----------------------------------
A|--------------------------------------------------------------
E|--------------------------------------------------------------
http://www.guitartabcreator.com
Guitar Tab Creator is intended to store guitar tab created through the tool. It currently does not support in-line text editing. Any text you place in here will be lost. If you need to comment on your tab, please use the "Tab Notes" section located below.