Bach presto

(/) Slide Up  (\) Slide Down  (h) Hammer On  (p) Pull Off  (b) Bend (r) Release (v) Vibrato

E|-----6--------------------------------------------------------------------3--------------------------
B|--8-----8-----8--------------------------------------------------------3-----3-----------------------
G|-----------7-----7-----7--------------------------------------------3-----------5--3--2--------------
D|--------------------8-----8--5--8--5-----5-----------------------5-----------------------5--4-----4--
A|--------------------------------------5-----5-----5-----------5--------------------------------5-----
E|-----------------------------------------------6-----6--3--6-----------------------------------------



E|--------2--5--------------------------------3--6--3-----------3--5-----------------3--------------------
B|-----3--------4--3-----------------------3-----------4-----4--------6--3-----3--6-----4-----------4-----
G|--2-----------------5--3--2-----------3-----------------5-----------------3--------------5-----5--------
D|-----------------------------5-----5--------------------------------------------------------7-----------
A|--------------------------------5-----------------------------------------------------------------------
E|--------------------------------------------------------------------------------------------------------



E|-----3--2--3--5--------------------------
B|-----------------1--------------3--------
G|--------------------0--5--3--5-----------
D|-----------------------------------3-----
A|--5-----------------------------------3--
E|-----------------------------------------
http://www.guitartabcreator.com
Guitar Tab Creator is intended to store guitar tab created through the tool. It currently does not support in-line text editing. Any text you place in here will be lost. If you need to comment on your tab, please use the "Tab Notes" section located below.