vorde

(/) Slide Up  (\) Slide Down  (h) Hammer On  (p) Pull Off  (b) Bend (r) Release (v) Vibrato

E|-------------------------------------------------------------------------
B|-------------------------------------------------------------------------
G|-------------------------------------------------------------------------
D|---8---9----9----8---6---7---7---6---8---9----9----8---------------------
A|-7---7---10---10---5---5---8---8---7---7---10---10-----9---10----10----9-
E|-----------------------------------------------------8---8----11----11---



E|---------------------------------------
B|---------------------------------------
G|---------------------------------------
D|---9---10---6---5---9---10---4---3-----
A|-7---7----8---8---7---7----2---1-----3-
E|-----------------------------------1---



E|-------------------------------------------------------------------------------------------------
B|-------------------------------------------------------------------------------------------------
G|-------------------------------------------------------------------------------------------------
D|---------7-8-0---------7-8-0---------7-8-10-12-0---------7-8-0---------7-8-0---------7-8-10-12-0-
A|----9-10----------9-10----------9-10----------------9-10----------9-10----------9-10-------------
E|-11------------11------------11------------------10------------10------------10------------------



E|-------------------------------------------------------------------------------------------------
B|-------------------------------------------------------------------------------------------------
G|-------------------------------------------------------------------------------------------------
D|---------7-8-0---------7-8-0---------7-8-10-12-0---------7-8-0---------7-8-0---------7-8-10-12-0-
A|----9-10----------9-10----------9-10----------------9-10----------9-10----------9-10-------------
E|-11------------11------------11------------------10------------10------------10------------------



E|-------------------------------------------------------------------------------------------
B|-------------------------------------------------------------------------------------------
G|-------------------------------------------------------------------------------------------
D|--------7-8-0--------7-8-0--------7-8-10-12-0--------7-8-0--------7-8-0--------7-8-10-12-0-
A|---9-10---------9-10---------9-10---------------9-10---------9-10---------9-10-------------
E|-8------------8------------8------------------8------------8------------8------------------



E|-
B|-
G|-
D|-
A|-
E|-



E|------------------------------------------------------------------------------------------------------------------------------------
B|------------------------------------------------------------------------------------------------------------------------------------
G|------------------------------------------------------------------------------------------------------------------------------------
D|------------7--8--0------------7--8--0------------7--8--10--12--0------------7--8--0------------7--8--0------------7--8--10--12--0--
A|-----9--10--------------9--10--------------9--10----------------------9--10--------------9--10--------------9--10-------------------
E|--6------------------6------------------6--------------------------6------------------6------------------5--------------------------
http://www.guitartabcreator.com
Guitar Tab Creator is intended to store guitar tab created through the tool. It currently does not support in-line text editing. Any text you place in here will be lost. If you need to comment on your tab, please use the "Tab Notes" section located below.