through your thighs

(/) Slide Up  (\) Slide Down  (h) Hammer On  (p) Pull Off  (b) Bend (r) Release (v) Vibrato


E|--------------------------------------------
B|--------------------------------------------
G|--------------------------------------------
D|--------------------------------------------
A|--------------------------------------------
E|--5--5--5--8--8--8--7--7--7--7--7--7--7--7--



E|-----------------------------------------------------------------------------
B|-----------------------------------------------------------------------------
G|-----------------------------------------------------------------------------
D|-----------------------------------------------------------------------------
A|-----------8--8--8--7--7--7--7--8-----------8--8--8--7--7--7--7--10--10--10--
E|--5--5--5--------------------------5--5--5-----------------------------------



E|--------------------------------------------------------------------------
B|--------------------------------------------------------------------------
G|--------------------------------------------------------------------------
D|--------------------------------------------------------------------------
A|-----------8--8--8--7--7--7--7--8-----------8--8--8--7--7--7--10--10--10--
E|--5--5--5--------------------------5--5--5--------------------------------



E|-----------------------------------------------------------------------
B|-----------------------------------------------------------------------
G|-----------------------------------------------------------------------
D|-----------------------------------------------------------------------
A|-----------8--8--8--7--7--7--7--8--------------------------------------
E|--5--5--5--------------------------8--8--8--8--8--8--7--7--7--7--7--7--



E|--------------------------------------------------------------------
B|--------------------------------------------------------------------
G|--------------------------------------------------------------------
D|--------------------------------------------------------------------
A|--------------------------8--8--8--7--7--7--7--7--7--7--7--7--7--7--
E|--5--5--5--5--5--5--5--5--------------------------------------------



E|--------------------------------------------------------------------
B|--------------------------------------------------------------------
G|--------------------------------------------------------------------
D|--------------------------------------------------------------------
A|--------------------------7--7--7--5--5--5--5--5--5--5--5--5--5--5--
E|--3--3--3--3--3--3--3--3--------------------------------------------



E|-----------------------------
B|-----------------------------
G|-----------------------------
D|-----------------------------
A|-----------------------------
E|--3--5--3--5--5--7--5--8--7--



E|--------------------------------------------------------------------------------------------
B|--------------------------------------------------------------------------------------------
G|--------------------------------------------------------------------------------------------
D|--------------------------------------------------------------------------------------------
A|--------------------------------------------------------------------------------------------
E|--5--5--5--5--5--5--5--5--5--5--5--5--5--0--3--3--3--3--3--3--3--3--3--3--3--3--3--5--3--0--



E|-----------------------------------------------------------------------------
B|-----------------------------------------------------------------------------
G|-----------------------------------------------------------------------------
D|-----------------------------------------------------------------------------
A|-----------------------------------------------------------------------------
E|--0--7--7--7--7--7--7--7--7--7--3--5--3--8--8--8--8--8--8--7--7--7--7--7--7--



E|--------------------------------------------------------------------------
B|--------------------------------------------------------------------------
G|--------------------------------------------------------------------------
D|--------------------------------------------------------------------------
A|-----------8--8--8--7--7--7--7--8-----------8--8--8--7--7--7--10--10--10--
E|--5--5--5--------------------------5--5--5--------------------------------



E|-----------------------------------------------------------------------
B|-----------------------------------------------------------------------
G|-----------------------------------------------------------------------
D|-----------------------------------------------------------------------
A|-----------8--8--8--7--7--7--7--8--------------------------------------
E|--5--5--5--------------------------8--8--8--8--8--8--7--7--7--7--7--7--



E|-----------------------------------------------------------------------------
B|-----------------------------------------------------------------------------
G|-----------------------------------------------------------------------------
D|-----------------------------------------------------------------------------
A|-----------------------------8--8--8--7--7--7--7--7--7--7--7--7--7--7--7-----
E|--5--5--5--5--5--5--5--5--5--------------------------------------------------



E|--------------------------------------------------------------------------
B|--------------------------------------------------------------------------
G|--------------------------------------------------------------------------
D|--------------------------------------------------------------------------
A|-----------------------------7--7--7--5--5--5--5--5--5--5--5--5--5--5--5--
E|--3--3--3--3--3--3--3--3--3-----------------------------------------------



E|------------------------------------------------------------------------------------
B|------------------------------------------------------------------------------------
G|------------------------------------------------------------------------------------
D|------------------------------------------------------------------------------------
A|-----------------------------8--8--8--10--10--10--10--10--10--10--10--10--10--8--7--
E|--7--7--7--7--7--7--7--7--7---------------------------------------------------------



E|-----------------------------------------------------------------------------
B|-----------------------------------------------------------------------------
G|-----------------------------------------------------------------------------
D|-----------------------------------------------------------------------------
A|-----------------------------------------------------------------------------
E|--5--5--5--5--5--5--5--5--5--3--3--3--5--5--5--5--5--5--5--5--5--3--3--3--5--
http://www.guitartabcreator.com
Guitar Tab Creator is intended to store guitar tab created through the tool. It currently does not support in-line text editing. Any text you place in here will be lost. If you need to comment on your tab, please use the "Tab Notes" section located below.