11/1/12

[code]
(/) Slide Up (\) Slide Down (h) Hammer On (p) Pull Off (b) Bend (r) Release (v) Vibrato


E|--1--------1p0--------------------3----------------------------------------3--
B|-----3----------3-----1-----1--------1-----1-----1--0h1--------3-----3--------
G|--------2----------2-----0-----0--------0-----0----------0--------0-----0-----
D|--0--------0----------3-----------3-------------------------2--------------0--
A|-------------------------------------------3-----3--3----------2--------------
E|------------------------------------------------------------------------------



E|--------1p0--------------------
B|--------3-------------------1--
G|-----2----------2--------2--2--
D|--0----------0--------2--------
A|-------------------0-----------
E|-------------------------------



E|-------------------------------
B|--------1p0---------------3-----
G|--------0----0----------0-0-----
D|-----2----------2-----0--------
A|--3----------------2-----------
E|-------------------------------
[/code]
[url]http://www.guitartabcreator.com[/url]
Guitar Tab Creator is intended to store guitar tab created through the tool. It currently does not support in-line text editing. Any text you place in here will be lost. If you need to comment on your tab, please use the "Tab Notes" section located below.