Working the F

(/) Slide Up  (\) Slide Down  (h) Hammer On  (p) Pull Off  (b) Bend (r) Release (v) Vibrato
E|-------------------
B|-------------------
G|-------------------
D|--------2-----0h2--
A|-----3-------------
E|--1--------3-------



E|----------------------
B|----------------------
G|----------------------
D|-------------------0--
A|-----3/5--------3-----
E|--1-------3--5--------



E|----------------------------------
B|----------------------------------
G|-------0--------------------------
D|--0h2-----2p0----------0----------
A|---------------3--0h2-----2p0-----
E|-------------------------------3--



E|----------------------------
B|----------------------------
G|----------------------------
D|-------5--5h7---------------
A|--5/7---------------5--5h7--
E|---------------5/7----------



E|---------------------
B|---------------------
G|---------------------
D|-------5-------------
A|--5/7----------5-----
E|----------5/7-----7--



E|--0---------------------
B|--0---------------------
G|--2---------------------
D|--3---------------------
A|--3-------3-------2-----
E|--1--3/5-----2/3-----3--



E|--0------------------
B|--0------------------
G|--2------------------
D|--3------------------
A|--3-------3-------7--
E|--1--3/5-----5/8-----



E|--0--0---0---
B|--0--8---0---
G|--9--0---11--
D|-----9-------
A|--7--10--9---
E|--8------10--
http://www.guitartabcreator.com
Guitar Tab Creator is intended to store guitar tab created through the tool. It currently does not support in-line text editing. Any text you place in here will be lost. If you need to comment on your tab, please use the "Tab Notes" section located below.