The Carnival From Hell

(/) Slide Up  (\) Slide Down  (h) Hammer On  (p) Pull Off  (b) Bend (r) Release (v) Vibrato

Stave 1:

E|-------------------------------------|---------------------------------|-
B|-------------------------------------|---------------------------------|-
G|-------------------------------------|---------------------------------|-
D|-------------------------------------|---------------------------------|-
A|-----3-----4---------3---3---4---1---|-3-----4---------3---3---4---1---|-
E|-0-2---0-2---0-0-2p0---0---0---0---0-|---0-2---0-0-2p0---0---0---0---0-|-

Stave 2:

E|----------------------------------
B|----------------------------------
G|----------------------------------
D|----------------------------------
A|-3-----4--------------------------
E|---0-0---0-0-2p0-0-0-0--0-0-0--2v-

Stave 3:

E|------------------------------------|---------------------------------|-
B|------------------------------------|---------------------------------|-
G|------------------------------------|---------------------------------|-
D|------------------------------------|---------------------------------|-
A|-----10---10---10-------7-----7-----|-----9---9---9-------3-----3-----|-
E|-0-9----9----9----9-0-5---0-5---0-0-|-0-7---7---7---7-0-2---0-2---0-0-|-

Stave 4:

E|-------------------------------|-------------------------------|-
B|-------------------------------|-------------------------------|-
G|-------------------------------|---------------------3---------|-
D|------------------1------------|---------------------3---------|-
A|------------------1-3-1-0-1-0--|---------------------1---------|-
E|-0-0-0-0-0-0-0-0----3-1-0-1-0--|-0-0-0--0-0-0--0-0-0-----0-0-0-|-

Stave 5:

E|-------------------------|---------------------------------------|-
B|-------------------------|---------------------------------------|-
G|-------------------------|---------------------------------------|-
D|-3-1-0-3-1-0-3-1-0-3-1-0-|-1-3-0-0-3-1-0-0-1-3-0-0-3-1-0-0-1-3-0-|-
A|-3-1-0-3-1-0-3-1-0-3-1-0-|-1-3-0-0-3-1-0-0-1-3-0-0-3-1-0-0-1-3-0-|-
E|-3-1-0-3-1-0-3-1-0-3-1-0-|-----0-0-3-1-0-0-----0-0-3-1-0-0-----0-|-

Stave 6:

E|-----------------------------------
B|-----------------------------------
G|-----------------------------------
D|--------9-10-9------------10-----8-
A|---7-10--------10-9-------10-----8-
E|-8------------------0-0-0-10-0-0-8-

http://www.guitartabcreator.com
Guitar Tab Creator is intended to store guitar tab created through the tool. It currently does not support in-line text editing. Any text you place in here will be lost. If you need to comment on your tab, please use the "Tab Notes" section located below.