Turn Loose the Mermaids -- Version 2

(/) Slide Up  (\) Slide Down  (h) Hammer On  (p) Pull Off  (b) Bend (r) Release (v) Vibrato

E|-----------3--3--1--3--------------------------------------------------
B|--------0--------------4--3--1--1--3--4--3--1--------1--3--1-----------
G|--0--3-----------------------------------------3--3-----------3--0--0--
D|-----------------------------------------------------------------------
A|-----------------------------------------------------------------------
E|-----------------------------------------------------------------------



E|-----------------1--3--1-----------------------------------------------
B|-----4--4--4--4-----------3--------1--3-----1--------------------------
G|--3--------------------------3--3--------3-----------------------------
D|-----------------------------------------------------------------------
A|-----------------------------------------------------------------------
E|-----------------------------------------------------------------------



E|--3--6--8----------8--10--3------------3--6------------------3--1--------------------------
B|---------------------------------------------4------------4----------3---------1--3-----1--
G|--0--3--5----------5--7---0------------0--3------------------0--------------3--------3-----
D|---------------------------------------------1------------1-----3--------------------------
A|-------------------------------------------------------------------------------------------
E|-------------------------------------------------------------------------------------------



E|--------3----3--3--1--3--------------------------------------------------
B|-----1-------------------4--3--1--1--3--4--3--1--------1--3--1-----------
G|--0----------------------------------------------3--3-----------3--0--0--
D|-------------------------------------------------------------------------
A|-------------------------------------------------------------------------
E|-------------------------------------------------------------------------



E|-----------------1--3--1-----------------------
B|-----4--4--4--4-----------3--------1--3-----1--
G|--3--------------------------3--3--------3-----
D|-----------------------------------------------
A|-----------------------------------------------
E|-----------------------------------------------



E|-------------------------------------------------------------------------1--1--------
B|--4--4--4--3-----1------1------1-----1-----------4----4--4------4--4--4--3--3--------
G|--0--0--0-----3-------------------3-----1--------3----3--3------3--3--3--------------
D|-----------3-----1------1------1--0--1--1--------5----5--5------5--5--5--3--3--------
A|-------------------------------------------------------------------------------------
E|-------------------------------------------------------------------------------------
http://www.guitartabcreator.com
Guitar Tab Creator is intended to store guitar tab created through the tool. It currently does not support in-line text editing. Any text you place in here will be lost. If you need to comment on your tab, please use the "Tab Notes" section located below.