Turn Loose The Mermaids -- Beginnings

(/) Slide Up  (\) Slide Down  (h) Hammer On  (p) Pull Off  (b) Bend (r) Release (v) Vibrato

E|-----------3--3--3-----3--------------------------------------------------
B|--------1-----------6-----4--------------4--------------------------------
G|-----3-----------------------7--5--5--7-----7--5--------5--7--5-----0--0--
D|--5-----------------------------------------------8--8-----------8--------
A|--------------------------------------------------------------------------
E|--------------------------------------------------------------------------



E|--------------------3--------------------------
B|-----4--4--4--4--6-----6--3-----------3--------
G|--3--------------------------3--3--5-----3--5--
D|-----------------------------------------------
A|-----------------------------------------------
E|-----------------------------------------------



E|--------3--3--3-----3--------------------------------------------------
B|-----------------6-----4--3--------3--4--3--------------3--------------
G|--0--5-----------------------5--5-----------5--3--3--5-----5--3--0--0--
D|-----------------------------------------------------------------------
A|-----------------------------------------------------------------------
E|-----------------------------------------------------------------------



E|--------------------3-----------------------
B|-----4--4--4--4--6-----3--------1--3-----1--
G|--3-----------------------3--3--------3-----
D|--------------------------------------------
A|--------------------------------------------
E|--------------------------------------------



E|--------
B|--------
G|--------
D|--------
A|--------
E|--------
http://www.guitartabcreator.com
Guitar Tab Creator is intended to store guitar tab created through the tool. It currently does not support in-line text editing. Any text you place in here will be lost. If you need to comment on your tab, please use the "Tab Notes" section located below.