main riff new tune

(/) Slide Up  (\) Slide Down  (h) Hammer On  (p) Pull Off  (b) Bend (r) Release (v) Vibrato


E|----------------------------------------------------------------------------------------------------
B|----------------------------------------------------------------------------------------------------
G|----------------------------------------------------------------------------------------------------
D|----------------------------------------------------------------------------------------------------
A|--------------------------------10--8--7------7------------------------------------8--7------7------
E|--0--0--0--0--0--0--0--8--0--0------------10-----10--8--0--0--0--0--0--0--0--8--0--------10-----10--



E|-------------------------------------------------------------------------------------------------
B|-------------------------------------------------------------------------------------------------
G|-------------------------------------------------------------------------------------------------
D|------------------------------------------------------------8--8--8--8--8--3/5--5--5--5--5/3--3--
A|---------------------------------------10--8--7------7------8--8--8--8--8--3-5--5--5--5--5-3--3--
E|--8--10--0--0--0--0--0--0--0--8--0--0------------10-----10--8--8--8--8--8--3-5--5--5--5--5-3--3--

Stave 1:

E|-------------
B|-------------
G|-------------
D|-------------
A|-------------
E|----------0--

Stave 2:

E|-----------------------------------------------------------
B|-----------------------------------------------------------
G|-----------------------------------------------------------
D|-----------------------------------------------------------
A|-----------------------------------------------------------
E|--0--0--0--0--0--0--0--0--8--0--0--0--5--5--5--5--7--7--7--

http://www.guitartabcreator.com
Guitar Tab Creator is intended to store guitar tab created through the tool. It currently does not support in-line text editing. Any text you place in here will be lost. If you need to comment on your tab, please use the "Tab Notes" section located below.