Impending Sense

(/) Slide Up  (\) Slide Down  (h) Hammer On  (p) Pull Off  (b) Bend (r) Release (v) Vibrato
E|--------------------------------------------------
B|--------------------------------------------------
G|--------------------------------------------------
D|--------------2-----------------2-----4-----------
A|--------------------------------------------3-----
E|--1--0--0--1-----1--1--0--0--1-----1-----1-----1--



E|--------------------------------------------------------
B|--------------------------------------------------------
G|--------------------------------------------------------
D|--------------2-----------------2-----4-----------------
A|--------------------------------------------------------
E|--1--0--0--1-----1--1--0--0--1-----1-----1--1--1--1--1--



E|--------------------------------------------------
B|--------------------------------------------------
G|--------------------------------------------------
D|--------------------------------------------------
A|--------4--------4--------4--------1--------------
E|--2--1-----2--1-----2--1-----2--1-----2--1--0--1--



E|--
B|--
G|--
D|--
A|--
E|--



E|--------------------------------------------------------------------------
B|--------------------------------------------------------------------------
G|--------------------------------------------------------------------------
D|--------------------------------------------------------------------------
A|--------------------------------------------------------------------------
E|--2--1--2--2--1--2--2--1--------------2--1--2--2--1--2--2--1--2--1--0--1--



E|---------------------------------------------------------
B|---------------------------------------------------------
G|---------------------------------------------------------
D|--6--2--5--2--1--0---------------------------------------
A|--6--2--5--2--1--0---------------------------------------
E|--6--2--5--2--1--0--1--0--0------------------0--0--0--0--



E|--------------------------------------------------------------------------------------------------
B|--------------------------------------------------------------------------------------------------
G|--------------------------------------------------------------------------------------------------
D|--------------------------------------------------------------------------------------------------
A|--------------6--6--6--------5--5--5--------8--8--------------6--6--6--------5--5--5--------------
E|--1--0--0--0-----------0--0-----------0--0--------0--0--0--0-----------0--0-----------6--6--3--3--



E|--------------------------------------------------------------------------------------------------
B|--------------------------------------------------------------------------------------------------
G|--------------------------------------------------------------------------------------------------
D|--------------------------------------------------------------------------------------------------
A|-----------6--6--6-----------5--5--5--------8--8-----------6--6--6-----------5--5--5--------------
E|--0--0--0-----------0--0--0-----------0--0--------0--0--0-----------0--0--0-----------6--6--3--3--



E|-----------------------------------
B|-----------------------------------
G|-----------------------------------
D|-----------------------------------
A|--------4--------4-----------------
E|--2--1-----2--1-----2--1--6--5--3--



E|---------------------------------------------------------
B|---------------------------------------------------------
G|---------------------------------------------------------
D|--0--0--0--0--3--3--3--3--5--5--5--5--8--8--10--8--0--7--
A|--0--0--0--0--3--3--3--3--5--5--5--5--8--8--10--8--0--7--
E|--0--0--0--0--3--3--3--3--5--5--5--5--8--8--10--8--0--7--



E|--------------------------------------------------------
B|--------------------------------------------------------
G|--------------------------------------------------------
D|--0--0--0--0--3--3--3--3--5--5--5--5--------------------
A|--0--0--0--0--3--3--3--3--5--5--5--5-----------5--3-----
E|--0--0--0--0--3--3--3--3--5--5--5--5--6--0--6--------6--



E|-----------------------------
B|-----------------------------
G|-----------------------------
D|--0--0--0--0--3--3--3--3--5--
A|--0--0--0--0--3--3--3--3--5--
E|--0--0--0--0--3--3--3--3--5--



E|------------------------------
B|------------------------------
G|------------------------------
D|------------------------------
A|------------------------------
E|--1--0--0----0----1--1--1--1--



E|-----------------------------------------------
B|-----------------------------------------------
G|-----------------------------------------------
D|--------------------------------------1--5--8--
A|-----------------4--------------------1--5--8--
E|--1--2--1--0--1-----1--0--1--2--1--0--1--5--8--



E|--------------------------------------------------
B|--------------------------------------------------
G|--------------------------------------------------
D|-----------------------------------------1--5--8--
A|-----------------------------------------1--5--8--
E|--13--2--1--0--13--2--1--0--13--2--1--0--1--5--8--



E|--------------------------------------------------
B|--------------------------------------------------
G|--------------------------------------------------
D|--------------------------------------------------
A|--------------------------------------------------
E|--13/2--1--0--13/2--1--0--13/2--1--0--13/2--1--0--
http://www.guitartabcreator.com
Guitar Tab Creator is intended to store guitar tab created through the tool. It currently does not support in-line text editing. Any text you place in here will be lost. If you need to comment on your tab, please use the "Tab Notes" section located below.