7/8 riffs and textures

(/) Slide Up  (\) Slide Down  (h) Hammer On  (p) Pull Off  (b) Bend (r) Release (v) Vibrato

E|--------------------------------------------------------
B|--------------------------------------------------------
G|--------------------------------------------------------
D|-----------------2--------------------2-----4-----------
A|--------------------------------------------------3-----
E|--1--0--0--0--1-----1--1--0--0--0--1-----1-----1-----1--



E|------------------------------------------------------------------------------------
B|--15----------------------15--------------------------------15----------------------
G|------14------17--15--14------14------17--15--14h15--12h14------14------17--15--14--
D|----------15----------------------15--------------------------------15--------------
A|------------------------------------------------------------------------------------
E|------------------------------------------------------------------------------------



E|-----------------------------------------------------------------------------------
B|--15-------------------------------------------------------------------------------
G|------14---------------------------------------------------------------------------
D|----------15--15/17--15/17--17--15--14--15--14--15--14--17--15--14h15--12--14--15--
A|-----------------------------------------------------------------------------------
E|-----------------------------------------------------------------------------------



E|----------------------0-----0-----0-----0-----0-----0-----0-----0-----0-----0-----0--
B|-------------------5-----5-----5-----5-----6-----6-----6-----6-----8-----6-----6-----
G|--14---------------------------------------------------------------------------------
D|------14--12--10v--------------------------------------------------------------------
A|-------------------------------------------------------------------------------------
E|-------------------------------------------------------------------------------------



E|------0-----0-----0-----0-----0-----0-----0-----0-----0-----0-----0-----0-----0-----0--
B|--10-----8-----8-----5-----5-----5-----5-----6-----6-----6-----6-----8-----6-----6-----
G|---------------------------------------------------------------------------------------
D|---------------------------------------------------------------------------------------
A|---------------------------------------------------------------------------------------
E|---------------------------------------------------------------------------------------



E|------0------0------0------0--------------------------------
B|--10-----10-----10-----10-----------------------------------
G|---------------------------------7-----7--5-----7-----------
D|------------------------------7-----7--------7-----5--0-----
A|------------------------------------------------------------
E|------------------------------------------------------------
http://www.guitartabcreator.com
Guitar Tab Creator is intended to store guitar tab created through the tool. It currently does not support in-line text editing. Any text you place in here will be lost. If you need to comment on your tab, please use the "Tab Notes" section located below.