Vengeance In Me

(/) Slide Up  (\) Slide Down  (h) Hammer On  (p) Pull Off  (b) Bend (r) Release (v) Vibrato


E|------------------------------------------------------------------
B|------------------------------------------------------------------
G|------------------------------------------------------------------
D|-------------------------------------------------7----------------
A|--------8--8--7--------10--10--8--------8--8--7-----10--8--10--7--
E|--0--0-----------0--0-------------0--0----------------------------



E|----------------------------------------------------------------------------
B|----------------------------------------------------------------------------
G|----------------------------------------------------------------------------
D|--------------------------------------------------------10------------------
A|--------12--12--10--------13--13--12--------12--12--10------13--11--13--10--
E|--0--0--------------0--0--------------0--0----------------------------------



E|-----------------------------------------------------------------------
B|-----------------------------------------------------------------------
G|-----------------------------------------------------------------------
D|-----------------------------------------------------------------------
A|--------8--8--7----------10--10--8----------12--12------13--12--10--8--
E|--8--8-----------10--10-------------12--12----------10-----------------
http://www.guitartabcreator.com
Guitar Tab Creator is intended to store guitar tab created through the tool. It currently does not support in-line text editing. Any text you place in here will be lost. If you need to comment on your tab, please use the "Tab Notes" section located below.