Original song

(/) Slide Up  (\) Slide Down  (h) Hammer On  (p) Pull Off  (b) Bend (r) Release (v) Vibrato
E|--5------------------------------------------------------------------------------------
B|--5--------5--5--3--1--0h1p0--1-----------1/5--3--1--0h1p0--1-----------1-----3-----5--
G|--------5---------------------------2-----------------------------2--------0-----0-----
D|-----7---------------------------2-----2-----------------------2-----2-----------------
A|--0---------------------------0-----------------------------0-----------2-----2-----3--
E|--------------0------------------------------------------------------------------------



E|-----------------------0-----------0--3--5-----------------------------------------------
B|-----------1-----3--------------1--------5--------5--5--3--1--0h1p0-----------------1/5--
G|--0-----0-----------2--------2-----------------5---------------------1--2-----2----------
D|-----2--------2--0--------2-----------------7------------------------------2-----2-------
A|-----------3-----------0-----------------0---------------------------0--0----------------
E|-----------------------------------------------------0-----------------------------------



E|---------------------------------------------------
B|--3--1--0h1p0--1-----------------------1-----------
G|---------------------2-----1-----------------2-----
D|------------------2-----2--------2--------2-----2--
A|---------------0--------------2-----2--0-----------
E|---------------------------0-----------------------
http://www.guitartabcreator.com
Guitar Tab Creator is intended to store guitar tab created through the tool. It currently does not support in-line text editing. Any text you place in here will be lost. If you need to comment on your tab, please use the "Tab Notes" section located below.