BFH

(/) Slide Up  (\) Slide Down  (h) Hammer On  (p) Pull Off  (b) Bend (r) Release (v) Vibrato

E|--------------------------------------------------------------------------------------
B|--------------------5-----------------------------------------6-----------------------
G|--------4--5--5--5-----5--5--3--5--2-----3--------4--5--5--5-----5--5--7--5--4--------
D|--5--7--------------------------------5-----5--7--------------------------------7--5--
A|--------------------------------------------------------------------------------------
E|--------------------------------------------------------------------------------------



E|-----------------------------------------------------------------
B|--------------------5--------6--5--3-----------------------------
G|--------4--5--5--5-----5--5-----------3-----------2-----2--3--5--
D|--5--7-----------------------------------5--5--5-----5-----------
A|-----------------------------------------------------------------
E|-----------------------------------------------------------------



E|------------------------------------------------------------------------------------------
B|--------------------------17------------------------------------------------------18------
G|----------16--17--17--17------17--17--15--17--14------15----------16--17--17--17------17--
D|--17--19------------------------------------------17------17--19--------------------------
A|------------------------------------------------------------------------------------------
E|------------------------------------------------------------------------------------------



E|------------------------------------------------------------------------------------------
B|--------------------------------------------------17----------18--17--15------------------
G|--17--19--17--16------------------16--17--17--17------17--17--------------15--------------
D|------------------19--17--17--19----------------------------------------------17--17--17--
A|------------------------------------------------------------------------------------------
E|------------------------------------------------------------------------------------------



E|----------------------
B|----------------------
G|--14------14--16--17--
D|------17--------------
A|----------------------
E|----------------------
http://www.guitartabcreator.com
Guitar Tab Creator is intended to store guitar tab created through the tool. It currently does not support in-line text editing. Any text you place in here will be lost. If you need to comment on your tab, please use the "Tab Notes" section located below.