Do Me A Favor

(/) Slide Up  (\) Slide Down  (h) Hammer On  (p) Pull Off  (b) Bend (r) Release (v) Vibrato

E|-------------------------------
B|-------------------------------
G|-------------------------------
D|-------------------------------
A|--7--7--7--7--7--7--7----5--7--
E|-------------------------------



E|-------------------------------------------------------
B|-------------------------------------------------------
G|-------------------------------------------------------
D|-------------------------------------------------------
A|--7--7--7--7----3--3--3--3--3--5--2--2--2--2--2--3--0--
E|-------------------------------------------------------



E|-----------------------------------------------------------------------------------------------
B|-----------------------------------------------------------------------------------------------
G|-----------------------------------------------------------------------------------------------
D|-----------------------------------------------------------------------------------------------
A|-----------------------------------------------------------8--8--8--7--7--7--5--5--5--7--7--7--
E|--0--0--0--0--0--0--0--0--0--0--0--0--0--0--0--0--0--0--0--------------------------------------



E|-----------------------------------------------------------------------
B|-----------------------------------------------------------------------
G|-----------------------------------------------------------------------
D|-----------------------------------------------------------------------
A|-----------------------------------------------------------------------
E|--0--0--0--0--0--0--0--0--0--0--0--0--2--2--2--2--2--2--2--2--2--2--2--



E|--------------------------------------------------------------------------------
B|--------------------------------------------------------------------------------
G|--------------------------------------------------------------------------------
D|--------------------------------------------------------------------------------
A|--------------------------------------------------------------------------------
E|--0--0--0--0--0--0--0--0--0--0--0--0--0--0--2--2--2--2--2--2--2--2--2--2--2-----



E|-----------------------------------------------------------------------------------------
B|-----------------------------------------------------------------------------------------
G|-----------------------------------------------------------------------------------------
D|-----------------------------------------------------------------------------------------
A|-----------------------------------------------------5--5--5--5--5--5--5--5--5--7--5-----
E|--0--0--0--0--0--0--0--0--0--0--0--0--0--0--0--0--0-----------------------------------3--



E|--------------------------------------------------
B|--------------------------------------------------
G|--------------------------------------------------
D|--------------------------------------------------
A|--------------------------------3----3----3----3--
E|--0----12\15----15--15h17p15----------------------



E|-----------------------------------------------------------------------
B|-----------------------------------------------------------------------
G|-----------------------------------------------------------------------
D|-----------------------------------------------------------------------
A|--------------------------------3----3----3----3--2--2--2--2--2--3--0--
E|--0----12\15----15--15h17p15-------------------------------------------



E|---------------------------------------------------------------
B|---------------------------------------------------------------
G|---------------------------------------------------------------
D|---------------------------------------------------------------
A|--------------------------------------------------5----5----5--
E|--0----0--3----0--5----0--7--------0----0----0-----------------



E|--------------------------------------------------------------------------------------
B|--------------------------------------------------------------------------------------
G|--------------------------------------------------------------------------------------
D|--------------------------------------------------8--8--8--7--7--7--5--5--5--7--7--7--
A|--------------------------------------------------------------------------------------
E|--0--0--0--0--0--0--0--0--0--0--0--0--0--0--0--0--------------------------------------



E|----------------------------------------------------------------------------
B|----------------------------------------------------------------------------
G|----------------------------------------------------------------------------
D|----------------------------------------------------------------------------
A|----------------------------------------------------------------------------
E|--0--0--0--0--0--0--0--0--0--0--0--0----2--2--2--2--2--2--2--2--2--2--2--2--



E|----------------------------------------------------------------------------------
B|----------------------------------------------------------------------------------
G|----------------------------------------------------------------------------------
D|----------------------------------------------------------------------------------
A|----------------------------------------------------------------------------------
E|--0--0--0--0--0--0--0--0--0--0--0--0--0--0----2--2--2--2--2--2--2--2--2--2--3-----



E|--------------------------------------
B|--------------------------------------
G|--------------------------------------
D|--------------------------------------
A|--5--5--5--5--5--5--5--5--5--7--5-----
E|-----------------------------------3--



E|----------------------------------------------------
B|----------------------------------------------------
G|----------------------------------------------------
D|----------------------------------------------------
A|----------------------------------3----3----3----3--
E|--0----12\15----15--15h17p15------------------------



E|-----------------------------------------------------------------------
B|-----------------------------------------------------------------------
G|-----------------------------------------------------------------------
D|-----------------------------------------------------------------------
A|--------------------------------3----3----3----3--2--2--2--2--2--3--0--
E|--0----12\15--15--15h17p15---------------------------------------------



E|-------------------------------------------------------------
B|-------------------------------------------------------------
G|-------------------------------------------------------------
D|-------------------------------------------------------------
A|---------------------------------8----8----8----5----5----5--
E|--0----0--3----0--5----0--7----------------------------------



E|----------------------------------------------------------------
B|----------------------------------------------------------------
G|----------------------------------------------------------------
D|----------------------------------------------------------------
A|----------------------------------------------------------------
E|--12--0--0--12----12--0--0--12----12--0--0--12----12--0--0--10--



E|----------------------------------------------------------------
B|----------------------------------------------------------------
G|----------------------------------------------------------------
D|----------------------------------------------------------------
A|----------------------------------------------------------------
E|--12--0--0--12----12--0--0--12----10--0--0--10----10--0--0--11--



E|----------------------------------------------------
B|----------------------------------------------------
G|----------------------------------------------------
D|----------------------------------------------------
A|----------------------------------3----3--3----3----
E|--0----12\15----15--15h17p15------------------------



E|-------------------------------------------------------------------------
B|-------------------------------------------------------------------------
G|-------------------------------------------------------------------------
D|-------------------------------------------------------------------------
A|----------------------------------3----3----3----3--2--2--2--2--2--3--0--
E|--0----13\15----15--15h17p15---------------------------------------------



E|--------------------------------------------------
B|--------------------------------------------------
G|--------------------------------------------------
D|--------------------------------------------------
A|--------------------------------------------------
E|--0--0--0--0--0--0--0--3----3--3----3--0--3--0----



E|---------------------------------------------
B|---------------------------------------------
G|---------------------------------------------
D|---------------------------------------------
A|--5--5--5--5--5-----2--3----3--3--2----2--2--
E|-----------------5---------------------------



E|-------------------------------------------------
B|-------------------------------------------------
G|-------------------------------------------------
D|-------------------------------------------------
A|-------------------------------------------------
E|--0--0--0--0--0--0--0--3----3--3--3--3--3--3--3--



E|---------------------------------------------
B|---------------------------------------------
G|---------------------------------------------
D|---------------------------------------------
A|--5--5--5--5--5-----2--3----3--3--2----2--2--
E|-----------------5---------------------------



E|--------------------------------------------
B|--------------------------------------------
G|--------------------------------------------
D|--------------------------------------------
A|--------------------------------------------
E|--0--0--0--0--0--0--0--3--3--3--3--3--3--3--



E|------------------------------------------------
B|------------------------------------------------
G|------------------------------------------------
D|------------------------------------------------
A|--5--5--5--5--5-----2--3----3--3--2----2--2--2--
E|-----------------5------------------------------



E|-----------------------------------------------
B|-----------------------------------------------
G|-----------------------------------------------
D|-----------------------------------------------
A|-----------------------------------------------
E|--0--0--0--0--0--0--0--3--3--3--3--3--3--3--3--



E|--------------------------
B|--------------------------
G|--------------------------
D|--------------------------
A|--5--5--5--5--5--5--5--5--
E|--------------------------



E|--------------------------------------------------
B|--------------------------------------------------
G|--------------------------------------------------
D|--------------------------------------------------
A|--3--3--3--2----2--2--2----3--3--3--2----2--2--2--
E|--------------------------------------------------



E|----------------------------------------------------------
B|----------------------------------------------------------
G|----------------------------------------------------------
D|----------------------------------------------------------
A|--3--3--3--2----2--2--2----3--3--3--5---------------------
E|-------------------------------------------------------0--
http://www.guitartabcreator.com
Guitar Tab Creator is intended to store guitar tab created through the tool. It currently does not support in-line text editing. Any text you place in here will be lost. If you need to comment on your tab, please use the "Tab Notes" section located below.