little scale

(/) Slide Up  (\) Slide Down  (h) Hammer On  (p) Pull Off  (b) Bend (r) Release (v) Vibrato

E|--5--6--3--5-----3--------------------------------------------------------------------------
B|--------------6-----5--6--3--5-----3--------------------------------------------------------
G|--------------------------------6-----4--6--3--4-----3--------------------------------------
D|--------------------------------------------------6-----5--6--3--5-----3--------------------
A|--------------------------------------------------------------------6-----5--6--3--5-----3--
E|--------------------------------------------------------------------------------------6-----



E|--------------------
B|--------------------
G|--------------------
D|--------------------
A|--------------------
E|--5--6--3--5--2--3--
http://www.guitartabcreator.com
Guitar Tab Creator is intended to store guitar tab created through the tool. It currently does not support in-line text editing. Any text you place in here will be lost. If you need to comment on your tab, please use the "Tab Notes" section located below.